Song name
# A B C D E F G H I J K L M N O P Q R S T U V W X Y Z

Kotiteollisuus - Vuonna Yksi Ja Kaksi tab

KOTITEOLLISUUS: VUONNA YKSI JA KAKSI

Vire: C#-G#-C#-F#-A#-D#

  Tabbed by plikk
 ****************************************************************************


Intro
|-------------------------------------------------------------------|
|-------------------------------------------------------------------|
|-------------------------------------------------------------------|
|--5-3-3-3-3-3-3-3-6-3-3-3-3-3-3-3-5-3-3-3-3-3-3-3-5-0-3-5-0-3-5-0--|
|-------------------------------------------------------------------|
|-------------------------------------------------------------------|


|-------------------------------------------------------------------|
|-------------------------------------------------------------------|
|-------------------------------------------------------------------|
|--5-3-3-3-3-3-3-3-6-3-3-3-3-3-3-3-5-3-3-3-3-3-3-3-5-0-3-5-0-3-5-0--|
|--5-3-3-3-3-3-3-3-6-3-3-3-3-3-3-3-5-3-3-3-3-3-3-3-5-0-3-5-0-3-5-0--|
|--5-3-3-3-3-3-3-3-6-3-3-3-3-3-3-3-5-3-3-3-3-3-3-3-5-0-3-5-0-3-5-0--|



...Miehen perse kynt maata...
|-------------------------------------------------------------------|
|-------------------------------------------------------------------|
|-------------------------------------------------------------------|
|--0-0-0-0-0-0-0-0-0-0-0-0-0-3-5-0-3-3-3-3-3-3-3-3-3-3-3-3-3-5-5-5--|
|--0-0-0-0-0-0-0-0-0-0-0-0-0-3-5-0-3-3-3-3-3-3-3-3-3-3-3-3-3-5-5-5--|
|--0-0-0-0-0-0-0-0-0-0-0-0-0-3-5-0-3-3-3-3-3-3-3-3-3-3-3-3-3-5-5-5--|
   x x x x x x x x x x x x x       x x x x x x x x x x x x x



...Esitelk itseni minulle...
|------------------------------------------------------------------|
|------------------------------------------------------------------|
|------------------------------------------------------------------|
|--3-0-0-2-0-0-1-0-3-0-0-2-0-0-3-2-3-0-0-2-0-0-1-0-3-0-0-2-0-0-1b--|
|--3-0-0-2-0-0-1-0-3-0-0-2-0-0-3-2-3-0-0-2-0-0-1-0-3-0-0-2-0-0-1b--|
|--3-0-0-2-0-0-1-0-3-0-0-2-0-0-3-2-3-0-0-2-0-0-1-0-3-0-0-2-0-0-1b--|


Lopetus
|----------------------------------------------------|
|----------------------------------------------------|
|----------------------------------------------------|
|--5-0-3-5-0-3-5--5-0-3-5-0-3-5--3--0--0-3-0--0-3-0--|
|--5-0-3-5-0-3-5--5-0-3-5-0-3-5--3--0--0-3-0--0-3-0--|
|--5-0-3-5-0-3-5--5-0-3-5-0-3-5--3--0--0-3-0--0-3-0--|
Tap to rate this tab
# A B C D E F G H I J K L M N O P Q R S T U V W X Y Z