Song name
# A B C D E F G H I J K L M N O P Q R S T U V W X Y Z

Kotiteollisuus - Tuomittu tab

KOTITEOLLISUUS: TUOMITTU

Vire: C#-G#-C#-F#-A#-D#

  Tabbed by plikk

x = dempattuna


Alkuriffi
|-------------------------------------------------------------------------------|
|-------------------------------------------------------------------------------|
|-------------------------------------------------------------------------------|
|--10-12-12-12-12-12-12-10-10-12-12-12-12~~~3-3--3-5-5-5-5-5-5-5-5-6-6-6-6-5-3--|
|--10-12-12-12-12-12-12-10-10-12-12-12-12~~~3-3--3-5-5-5-5-5-5-5-5-6-6-6-6-5-3--|
|--10-12-12-12-12-12-12-10-10-12-12-12-12~~~3-3--3-5-5-5-5-5-5-5-5-6-6-6-6-5-3--|


                     1-3.               4.
|-------------------|------------------|----------------|
|-------------------|------------------|----------------|
|-------------------|------------------|----------------|
|--0-0-0-0-0---0-0--|--0-0---0-0-0-----|----------------|
|--0-0-0-0-0---0-0--|--0-0---0-0-0-----|--5-4-0-3-2-----|
|--0-0-0-0-0---0-0--|--0-0---0-0-0-2b--|------------3b--|


                     1-3.               4.
|-------------------|------------------|----------------|
|-------------------|------------------|----------------|
|-------------------|------------------|----------------|
|--0-0-0-0-0---0-0--|--0-0---0-0-0-----|----------------|
|--0-0-0-0-0---0-0--|--0-0---0-0-0-----|--5-4-0-3-2-----|
|--0-0-0-0-0---0-0--|--0-0---0-0-0-2b--|------------3---|
   x x x x x   x x     x x   x x x


...Ja jos jonkun...
|-------------------------------------------------------------------|
|-------------------------------------------------------------------|
|-------------------------------------------------------------------|
|--7-7-7-7-7-7-7-7-5-5-5-5-5-5-5-5-3-3-3-3-2-2-2-2-5-5-5-5-5-5-5-5--|
|--7-7-7-7-7-7-7-7-5-5-5-5-5-5-5-5-3-3-3-3-2-2-2-2-5-5-5-5-5-5-5-5--|
|--7-7-7-7-7-7-7-7-5-5-5-5-5-5-5-5-3-3-3-3-2-2-2-2-5-5-5-5-5-5-5-5--|



Lopetus
|-----|
|-----|
|-----|
|--0--|
|--0--|
|--0--|
Tap to rate this tab
# A B C D E F G H I J K L M N O P Q R S T U V W X Y Z