Song name
# A B C D E F G H I J K L M N O P Q R S T U V W X Y Z

Kotiteollisuus - Enkeli tab

KOTITEOLLISUUS: ENKELI

Vire: C#-G#-C#-F#-A#-D#

  Tabbed by plikk

x = dempattuna


Alkuriffi
|---------------------------------------------------------------|
|---------------------------------------------------------------|
|---------------------------------------------------------------|
|--0-0-1-1-2-2-3-4--0-1-1-2-2-3-4-0-0-1-1-2-2-3-4--0-1-1-2-2-3--|
|--0-0-1-1-2-2-3-4--0-1-1-2-2-3-4-0-0-1-1-2-2-3-4--0-1-1-2-2-3--|
|--0-0-1-1-2-2-3-4--0-1-1-2-2-3-4-0-0-1-1-2-2-3-4--0-1-1-2-2-3--|


                   ...Minä synnyin hyväksi...
|----------------------------------------------------------------|
|----------------------------------------------------------------|
|----------------------------------------------------------------|
|--0-0-1-1-2-2-3-4--0-7-7-7-7-7-0-3-3-3-3-3-3-3-3-5-5-5-5-5-3-2--|
|--0-0-1-1-2-2-3-4--0-7-7-7-7-7-0-3-3-3-3-3-3-3-3-5-5-5-5-5-3-2--|
|--0-0-1-1-2-2-3-4--0-7-7-7-7-7-0-3-3-3-3-3-3-3-3-5-5-5-5-5-3-2--|
   x x x x x x x x  x x x x x x x x x x x x x x x x x x x x x x


...En kumarra...
|-------------------------------------------------------------------
|-------------------------------------------------------------------
|-------------------------------------------------------------------
|--3-3-3-3-3-3-3-3-3-3-3-3-3-3-3-3-7-7-7-7-7-7-7-7-7-7-7-7-7-7-7-7--
|--3-3-3-3-3-3-3-3-3-3-3-3-3-3-3-3-7-7-7-7-7-7-7-7-7-7-7-7-7-7-7-7--
|--3-3-3-3-3-3-3-3-3-3-3-3-3-3-3-3-7-7-7-7-7-7-7-7-7-7-7-7-7-7-7-7--

 -------------------------------------------------------------------|
 -------------------------------------------------------------------|
 -------------------------------------------------------------------|
 --5-5-5-5-5-5-5-5-3-3-3-3-3-3-3-3-0-0-0-0-0-0-0-0-0-0-0-0-0-0-0-0--|
 --5-5-5-5-5-5-5-5-3-3-3-3-3-3-3-3-0-0-0-0-0-0-0-0-0-0-0-0-0-0-0-0--|
 --5-5-5-5-5-5-5-5-3-3-3-3-3-3-3-3-0-0-0-0-0-0-0-0-0-0-0-0-0-0-0-0--|



|---------------------------------------------------------------|
|---------------------------------------------------------------|
|---------------------------------------------------------------|
|--0-0-1-1-2-2-3-4--0-1-1-2-2-3-4-0-0-1-1-2-2-3-4--0-1-1-2-2-3--|
|--0-0-1-1-2-2-3-4--0-1-1-2-2-3-4-0-0-1-1-2-2-3-4--0-1-1-2-2-3--|
|--0-0-1-1-2-2-3-4--0-1-1-2-2-3-4-0-0-1-1-2-2-3-4--0-1-1-2-2-3--|
   x x x x x x x x  x x x x x x x x x x x x x x x  x x x x x x


--------------------------------------------------------------------------------------
Tap to rate this tab
 
# A B C D E F G H I J K L M N O P Q R S T U V W X Y Z