Song name
# A B C D E F G H I J K L M N O P Q R S T U V W X Y Z

Kotiteollisuus - Voimakas tab

KOTITEOLLISUUS: VOIMAKAS

Vire: C#-G#-C#-F#-A#-D#

  ****************************************************************************
Tabbed by plikk
  ****************************************************************************


I
|---------------------------|
|---------------------------|
|---------------------3--2--|
|-3--3-3-5--5-5-3--0--3--2--|
|-3--3-3-5--5-5-3--0--1--0--|
|-3--3-3-5--5-5-3--0--------|
 "Sinä käytätä sanaa, sinä käytät voimaa!"

II
|-----------|
|-----------|
|-----------|
|-3--3-5----|
|-3--3-5----|
|-3--3-5----|
 "Voimakas..."


--------------------------------------------------------------------------------------
Tap to rate this tab
 
# A B C D E F G H I J K L M N O P Q R S T U V W X Y Z