Guitaretab - guitar tabs
Song name
# A B C D E F G H I J K L M N O P Q R S T U V W X Y Z

Kotiteollisuus - Aamen tab

KOTITEOLLISUUS: AAMEN

Vire: C#-G#-C#-F#-A#-D#

  Tabbed by plikk
  ****************************************************************************


I
|---------------------------------------------------|
|---------------------------------------------------|
|---------------------------------------------------|
|-0--3--0-3--0-3--0-3--0-3---3--0-3--0-3--0-5---3-2-|
|-0--3--0-3--0-3--0-3--0-3---3--0-3--0-3--0-5---3-2-|
|-0--3--0-3--0-3--0-3--0-3---3--0-3--0-3--0-5---3-2-|

II
|-------------------|
|-------------------|
|-------------------|
|-7-\-2--3--2--3-3--|
|-7-\-2--3--2--3-3--|
|-7-\-2--3--2--3-3--|

III
|-------|------|
|-------|------|
|-------|------|
|-------|-2-2--|
|-------|-2-2--|
|-7\(2)-|-2-2--|
[ Tab from: http://www.guitaretab.com/k/kotiteollisuus/49442.html ]
IV
|----------------------------|
|----------------------------|
|----------------------------|
|-3-5--3-5--3-5--3-5--3-5-0--|
|-3-5--3-5--3-5--3-5--3-5-0--|
|-3-5--3-5--3-5--3-5--3-5-0--|
 "Aamen! Minš en unelmoi!"

V
|-8-8--8-8--8-8--8-8--8-8...-|
|----------------------------|
|----------------------------|
|----------------------------|
|----------------------------|
|----------------------------|

VI
|-10-10--10-10--10-...-|-11-11--11-11--10-...-|-12-12--12-12--12-..-|
|-10-10--10-10--10-...-|-10-10--10-10--10-...-|-10-10--10-10--10-..-|
|----------------------|----------------------|---------------------|
|----------------------|----------------------|---------------------|
|----------------------|----------------------|---------------------|
|----------------------|----------------------|---------------------|

VII
|----------------|
|----------------|
|----------------|
|----------------|
|----------------|
|-5---7-5-3--0---|


--------------------------------------------------------------------------------------
Related for Aamen tab