Song name
# A B C D E F G H I J K L M N O P Q R S T U V W X Y Z

Kotiteollisuus - Pieni tab

KOTITEOLLISUUS: PIENI

Vire: C#-G#-C#-F#-A#-D#

  Tabbed by plikk


Alkuriffi
|-----------------------------|
|-----------------------------|
|-----------------------------|
|--5-5-5-6------4-4-4-6-------|
|--5-5-5----5p6-4-4-4----5p6--|
|--5-5-5--------4-4-4---------|


...Taivas!...
|-----------------------------------|
|-----------------------------------|
|-----------------------------------|
|--8--8--8--8--8-8-7--7--7--7--7-7--|
|--5--5--5--5--5-5-4--4--4--4--4-4--|
|--5--5--5--5--5-5-4--4--4--4--4-4--|


...Luuletko että opin jotain...
|--------------------------|
|--------------------------|
|--7--7--7--7--------------|
|--7--7--7--7--3--3--5--5--|
|--5--5--5--5--3--3--5--5--|
|--0--0--0--0--3--3--5--5--|


--------------------------------------------------------------------------------------
Tap to rate this tab
# A B C D E F G H I J K L M N O P Q R S T U V W X Y Z