Song name
# A B C D E F G H I J K L M N O P Q R S T U V W X Y Z

Kotiteollisuus - Kivipaa tab

Help us improve GuitareTab! Take a short survey!
KOTITEOLLISUUS: KIVIP

Vire: C#-G#-C#-F#-A#-D#

  Tabbed by plikk


Alkuriffi
|-----------------------------------------------------------|
|-----------------------------------------------------------|
|-----------------------------------------------------------|
|--------------2-2-2-2-2-2-2-2-------------4-4-4-4-4-4-4-4--|
|--3-2-0-------2-2-2-2-2-2-2-2-3-2-0-------4-4-4-4-4-4-4-4--|
|--------3-2-0-2-2-2-2-2-2-2-2-------3-2-0-4-4-4-4-4-4-4-4--|


|-----------------------------------------------------|
|-----------------------------------------------------|
|-----------------------------------------------------|
|--0--2-3--0-3-0--2-3--0-6-5-0--2-3--0-3-0--2-3--0-3--|
|--0--2-3--0-3-0--2-3--0-6-5-0--2-3--0-3-0--2-3--0-3--|
|--0--2-3--0-3-0--2-3--0-6-5-0--2-3--0-3-0--2-3--0-3--|


...Ulkona on hieman...
|--------------------|
|--6------5-------4--|
|--------------------|
|--------------------|
|--------------------|
|--------------------|



Kertsi
|------------------------------------------------------------|
|------------------------------------------------------------|
|------------------------------------------------------------|
|--0--7--5--0-3--0--7--5--0--3--0--7--5--0-3--0--7--5--0--3--|
|--0--7--5--0-3--0--7--5--0--3--0--7--5--0-3--0--7--5--0--3--|
|--0--7--5--0-3--0--7--5--0--3--0--7--5--0-3--0--7--5--0--3--|


---------------------------------------------------------------------------------------
Related for Kivipaa tab