Song name
# A B C D E F G H I J K L M N O P Q R S T U V W X Y Z

Kotiteollisuus - Velhonaisen Ala Salli Elaa tab

KOTITEOLLISUUS: VELHONAISEN ÄLÄ SALLI ELÄÄ

Vire: C#-G#-C#-F#-A#-D#

Tabbed by plikk
  ****************************************************************************


Alkuriffi
|-----------------------------------|
|-----------------------------------|
|-----------------------------------|
|--2-2-3-0-2-2-3-0-2-2-3-0-2-2-3-0--|
|--2-2-3-0-2-2-3-0-2-2-3-0-2-2-3-0--|
|--2-2-3-0-2-2-3-0-2-2-3-0-2-2-3-0--|


...Suuri nauru...
|-----------------------------------|
|-----------------------------------|
|-----------------------------------|
|--2-2-3-0-2-2-3-0-2-2-3-0-2-2-3-0--|
|--2-2-3-0-2-2-3-0-2-2-3-0-2-2-3-0--|
|--2-2-3-0-2-2-3-0-2-2-3-0-2-2-3-0--|
   x x x x x x x x x x x x x x x x


...Velhonaisen...
|-----------------------------------|
|-----------------------------------|
|-----------------------------------|
|--3-2-0-0-3-2-0-0-3-2-0-0-3-2-0-0--|
|--3-2-0-0-3-2-0-0-3-2-0-0-3-2-0-0--|
|--3-2-0-0-3-2-0-0-3-2-0-0-3-2-0-0--|


...Kun minä olin...
|-----|
|-----|
|--7--|
|--7--|
|--5--|
|--0--|


...Älä tule enää takaisin...
|--------------------------------------|
|--------------------------------------|
|--777777777777777777777777-5555-8888--|
|--777777777777777777777777-5555-8888--|
|--555555555555555555555555-3333-6666--|
|--------------------------------------|


---------------------------------------------------------------------------------------
Tap to rate this tab
# A B C D E F G H I J K L M N O P Q R S T U V W X Y Z