Song name
# A B C D E F G H I J K L M N O P Q R S T U V W X Y Z

Kotiteollisuus - Isa Poika Ja Paha Henki tab

KOTITEOLLISUUS: ISÄ, POIKA JA PAHA HENKI

Vire: C#-G#-C#-F#-A#-D#

  Tabbed by plikk


x = dempattuna


Alkuriffi                   1.             2.
|--------------------------|--------------|--------------|
|--------------------------|--------------|--------------|
|--------------------------|--------------|--------------|
|--0--12--10--7-3--5--3--5-|-7--0-7--0-7--|-7--0-6--0-5--|
|--0--12--10--7-3--5--3--5-|-7--0-7--0-7--|-7--0-6--0-5--|
|--0--12--10--7-3--5--3--5-|-7--0-7--0-7--|-7--0-6--0-5--|


|--------------------------------------------------------------------|
|--------------------------------------------------------------------|
|--------------------------------------------------------------------|
|--0-0-0-----------------------0-0-0----0-0-0-0-0-0-0-0--------------|
|--0-0-0-----------------------0-0-0----0-0-0-0-0-0-0-0--------------|
|--0-0-0----------7--0-6--0-5--0-0-0----0-0-0-0-0-0-0-0-7--0-6--0-5--|
                                        x x x x x x x x


...Tähtien alla...
|-----------------------------------------------|
|-----------------------------------------------|
|-----------------------------------------------|
|---0--0-----0-------5-3--0--0--2--3--0-3--0-3--|
|---0--0--5--0--5-3--5-3--0--0--2--3--0-3--0-3--|
|---0--0-----0-------5-3--0--0--2--3--0-3--0-3--|



...Kun pirun viulu soi...
|-----------------------------------------------------------|
|-----------------------------------------------------------|
|-----------------------------------------------------------|
|--0--12-0-10--0-7--0-3-0-3--5--0-0-3-0-3--5-6--5-6-5-3--0--|
|--0--12-0-10--0-7--0-3-0-3--5--0-0-3-0-3--5-6--5-6-5-3--0--|
|--0--12-0-10--0-7--0-3-0-3--5--0-0-3-0-3--5-6--5-6-5-3--0--|
                                x x

-------------------------------------------------------------------------------------
Tap to rate this tab
# A B C D E F G H I J K L M N O P Q R S T U V W X Y Z