Song name
# A B C D E F G H I J K L M N O P Q R S T U V W X Y Z

Kotiteollisuus - Arkunnaula tab


Kotiteollisuus: Arkunnaula

Vire: C#-G#-C#-F#-A#-D#

Tabit selvitti JawsFree







|---------------------------|
|---------------------------|
|---------------------------|
|---0-0-0-3-7-7-5-3-5-3-7---|   x4
|---0-0-0-3-7-7-5-3-5-3-7---|
|---0-0-0-3-7-7-5-3-5-3-7---|




        Maailma on...
|-----------------------------------------------------------------------|
|-----------------------------------------------------------------------|
|---------------------------------------5-5-5-5-5-5-5-5-5-5-5-5-5-5-5-5-|
|---0-0-0-0-0-0-0-0-0-0-0-0-0-0-0-0-0-0-5-5-5-5-5-5-5-5-5-5-5-5-5-5-5-5-|
|---0-0-0-0-0-0-0-0-0-0-0-0-0-0-0-0-0-0-3-3-3-3-3-3-3-3-3-3-3-3-3-3-3-3-|
|---0-0-0-0-0-0-0-0-0-0-0-0-0-0-0-0-0-0---------------------------------|
        x x x x x x x x x x x x x x x x x x x x x x x x x x x x x x x x


|---------------------------------|-------------------------------------|
|---------------------------------|-------------------------------------|
|---------------------------------|-------------------------------------|
|-5-5-5-5-5-5-5-5-5-5-5-5-5-5-5-5-|-0-0-0-3-7-7-5-3-5-3-7---------------|
|-5-5-5-5-5-5-5-5-5-5-5-5-5-5-5-5-|-0-0-0-3-7-7-5-3-5-3-7---------------|
|-5-5-5-5-5-5-5-5-5-5-5-5-5-5-5-5-|-0-0-0-3-7-7-5-3-5-3-7---------------|
  x x x x x x x x x x x x x x x x



        Takaa verhojen...
|-----------------------------------------------------------------------|
|-----------------------------------------------------------------------|
|---------------------------------------5-5-5-5-5-5-5-5-5-5-5-5-5-5-5-5-|
|---0-0-0-0-0-0-0-0-0-0-0-0-0-0-0-0-0-0-5-5-5-5-5-5-5-5-5-5-5-5-5-5-5-5-|
|---0-0-0-0-0-0-0-0-0-0-0-0-0-0-0-0-0-0-3-3-3-3-3-3-3-3-3-3-3-3-3-3-3-3-|
|---0-0-0-0-0-0-0-0-0-0-0-0-0-0-0-0-0-0---------------------------------|
        x x x x x x x x x x x x x x x x x x x x x x x x x x x x x x x x


|---------------------------------|-------------------------------------|
|---------------------------------|-------------------------------------|
|---------------------------------|-------------------------------------|
|-5-5-5-5-5-5-5-5-5-5-5-5-5-5-5-5-|-7-7-7-7-7-7-7-0---------------------|
|-5-5-5-5-5-5-5-5-5-5-5-5-5-5-5-5-|-7-7-7-7-7-7-7-0---------------------|
|-5-5-5-5-5-5-5-5-5-5-5-5-5-5-5-5-|-7-7-7-7-7-7-7-0-5-------------------|
  x x x x x x x x x x x x x x x x






Kertsi: x2
|---------------------------------------------------------------------|
|---------------------------------------------------------------------|
|-----------------------------------5-5-5-5-5-5-5-5-------------------|
|---0-0-0-0-0-0-0-0-2-2-2-2-2-2-2-2-5-5-5-5-5-5-5-5-5-5-5-5-5-5-5-5---|
|---0-0-0-0-0-0-0-0-2-2-2-2-2-2-2-2-3-3-3-3-3-3-3-3-5-5-5-5-5-5-5-5---|
|---0-0-0-0-0-0-0-0-2-2-2-2-2-2-2-2-----------------5-5-5-5-5-5-5-5---|



|---------------------------------------------------------------------|
|---------------------------------------------------------------------|
|---------------------------------------------------------------------|
|---0-0-0-0-0-0-0-0-2-2-2-2-2-2-2-2-3-3-3-3-3-3-3-3-5-5-5-5-5-5-5-5---|
|---0-0-0-0-0-0-0-0-2-2-2-2-2-2-2-2-3-3-3-3-3-3-3-3-5-5-5-5-5-5-5-5---|
|---0-0-0-0-0-0-0-0-2-2-2-2-2-2-2-2-3-3-3-3-3-3-3-3-5-5-5-5-5-5-5-5---|






|---------------------------|
|---------------------------|
|---------------------------|
|---0-0-0-3-7-7-5-3-5-3-7---|   x4
|---0-0-0-3-7-7-5-3-5-3-7---|
|---0-0-0-3-7-7-5-3-5-3-7---|





        Te olette...
|-----------------------------------------------------------------------|
|-----------------------------------------------------------------------|
|---------------------------------------5-5-5-5-5-5-5-5-5-5-5-5-5-5-5-5-|
|---0-0-0-0-0-0-0-0-0-0-0-0-0-0-0-0-0-0-5-5-5-5-5-5-5-5-5-5-5-5-5-5-5-5-|
|---0-0-0-0-0-0-0-0-0-0-0-0-0-0-0-0-0-0-3-3-3-3-3-3-3-3-3-3-3-3-3-3-3-3-|
|---0-0-0-0-0-0-0-0-0-0-0-0-0-0-0-0-0-0---------------------------------|
        x x x x x x x x x x x x x x x x x x x x x x x x x x x x x x x x


|---------------------------------|-------------------------------------|
|---------------------------------|-------------------------------------|
|---------------------------------|-------------------------------------|
|-5-5-5-5-5-5-5-5-5-5-5-5-5-5-5-5-|-0-0-0-3-7-7-5-3-5-3-7---------------|
|-5-5-5-5-5-5-5-5-5-5-5-5-5-5-5-5-|-0-0-0-3-7-7-5-3-5-3-7---------------|
|-5-5-5-5-5-5-5-5-5-5-5-5-5-5-5-5-|-0-0-0-3-7-7-5-3-5-3-7---------------|
  x x x x x x x x x x x x x x x x



        Minä käyn...
|-----------------------------------------------------------------------|
|-----------------------------------------------------------------------|
|---------------------------------------5-5-5-5-5-5-5-5-5-5-5-5-5-5-5-5-|
|---0-0-0-0-0-0-0-0-0-0-0-0-0-0-0-0-0-0-5-5-5-5-5-5-5-5-5-5-5-5-5-5-5-5-|
|---0-0-0-0-0-0-0-0-0-0-0-0-0-0-0-0-0-0-3-3-3-3-3-3-3-3-3-3-3-3-3-3-3-3-|
|---0-0-0-0-0-0-0-0-0-0-0-0-0-0-0-0-0-0---------------------------------|
        x x x x x x x x x x x x x x x x x x x x x x x x x x x x x x x x


|---------------------------------|-------------------------------------|
|---------------------------------|-------------------------------------|
|---------------------------------|-------------------------------------|
|-5-5-5-5-5-5-5-5-5-5-5-5-5-5-5-5-|-7-7-7-7-7-7-7-0---------------------|
|-5-5-5-5-5-5-5-5-5-5-5-5-5-5-5-5-|-7-7-7-7-7-7-7-0---------------------|
|-5-5-5-5-5-5-5-5-5-5-5-5-5-5-5-5-|-7-7-7-7-7-7-7-0-5-------------------|
  x x x x x x x x x x x x x x x x






Kertsi: x4

|---------------------------------------------------------------------|
|---------------------------------------------------------------------|
|-----------------------------------5-5-5-5-5-5-5-5-------------------|
|---0-0-0-0-0-0-0-0-2-2-2-2-2-2-2-2-5-5-5-5-5-5-5-5-5-5-5-5-5-5-5-5---|
|---0-0-0-0-0-0-0-0-2-2-2-2-2-2-2-2-3-3-3-3-3-3-3-3-5-5-5-5-5-5-5-5---|
|---0-0-0-0-0-0-0-0-2-2-2-2-2-2-2-2-----------------5-5-5-5-5-5-5-5---|



|---------------------------------------------------------------------|
|---------------------------------------------------------------------|
|---------------------------------------------------------------------|
|---0-0-0-0-0-0-0-0-2-2-2-2-2-2-2-2-3-3-3-3-3-3-3-3-5-5-5-5-5-5-5-5---|
|---0-0-0-0-0-0-0-0-2-2-2-2-2-2-2-2-3-3-3-3-3-3-3-3-5-5-5-5-5-5-5-5---|
|---0-0-0-0-0-0-0-0-2-2-2-2-2-2-2-2-3-3-3-3-3-3-3-3-5-5-5-5-5-5-5-5---|





Loppumelodiat: x2 (taustalla kertsi x2)

|-----------------------------------------|
|---8-8-8-8-7-7-5-5-3-3-0-5--0--3-5-3-1-0-|
|-----------------------------------------|
|-----------------------------------------|
|-----------------------------------------|
|-----------------------------------------|


|-----------------------------------------|
|-8-8-8-8-7-7-5-5-3-3-0-5--0--3-----------|
|-------------------------------5-2-5-4---|
|-----------------------------------------|
|-----------------------------------------|
|-----------------------------------------|


Tap to rate this tab
# A B C D E F G H I J K L M N O P Q R S T U V W X Y Z