Song name
# A B C D E F G H I J K L M N O P Q R S T U V W X Y Z

Kotiteollisuus - Kivireki tab

Kotiteollisuus: Kivireki

Vire: C#-G#-C#-F#-A#-D#

Tabit selvitti Jaws



|-----------------------------------|
|-----------------------------------|
|-----------------------------------|
|---0-0-7-8-0-0-7-8-0-0-7-8-0-0-7---|   x6
|---0-0-7-8-0-0-7-8-0-0-7-8-0-0-7---|
|---0-0-7-8-0-0-7-8-0-0-7-8-0-0-7---|

            x16
|-------------|-----------------|
|-------------|-----------------|
|-------------|-----------------|
|---0-0-7-8---|-333333332222111-|
|---0-0-7-8---|-333333332222111-|
|---0-0-7-8---|-333333332222111-|


            x16
|-------------|-----------------|
|-------------|-----------------|
|-------------|-----------------|
|---0-0-7-8---|-333333332222222-|
|---0-0-7-8---|-333333332222222-|
|---0-0-7-8---|-333333332222222-|

Kertsi:

|---------------------------------------------------------------------|
|---------------------------------------------------------------------|
|---------------------------------------------------------------------|
|---0-0-0-0-0-0-0-0-8-8-8-8-8-8-8-8-3-3-3-3-3-3-3-3-7-7-7-7-7-7-7-7---|   x2
|---0-0-0-0-0-0-0-0-8-8-8-8-8-8-8-8-3-3-3-3-3-3-3-3-7-7-7-7-7-7-7-7---|
|---0-0-0-0-0-0-0-0-8-8-8-8-8-8-8-8-3-3-3-3-3-3-3-3-7-7-7-7-7-7-7-7---|

|-----------------------------------|
|-----------------------------------|
|-----------------------------------|
|---0-0-7-8-0-0-7-8-0-0-7-8-0-0-7---|   x2
|---0-0-7-8-0-0-7-8-0-0-7-8-0-0-7---|
|---0-0-7-8-0-0-7-8-0-0-7-8-0-0-7---|


            x16
|-------------|-----------------|
|-------------|-----------------|
|-------------|-----------------|
|---0-0-7-8---|-333333332222222-|
|---0-0-7-8---|-333333332222222-|
|---0-0-7-8---|-333333332222222-|

Kertsi:

|---------------------------------------------------------------------|
|---------------------------------------------------------------------|
|---------------------------------------------------------------------|
|---0-0-0-0-0-0-0-0-8-8-8-8-8-8-8-8-3-3-3-3-3-3-3-3-7-7-7-7-7-7-7-7---|   x4
|---0-0-0-0-0-0-0-0-8-8-8-8-8-8-8-8-3-3-3-3-3-3-3-3-7-7-7-7-7-7-7-7---|
|---0-0-0-0-0-0-0-0-8-8-8-8-8-8-8-8-3-3-3-3-3-3-3-3-7-7-7-7-7-7-7-7---|

|-----------------------------------|
|-----------------------------------|
|-----------------------------------|
|---0-0-7-8-0-0-7-8-0-0-7-8-0-0-7---|   x6
|---0-0-7-8-0-0-7-8-0-0-7-8-0-0-7---|
|---0-0-7-8-0-0-7-8-0-0-7-8-0-0-7---|
Tap to rate this tab
# A B C D E F G H I J K L M N O P Q R S T U V W X Y Z