Song name
# A B C D E F G H I J K L M N O P Q R S T U V W X Y Z

Kotiteollisuus - Kummitusjuna tab

Kotiteollisuus: Kummitusjuna

Vire: C#-G#-C#-F#-A#-D#

Tabit selvitti JawsFree




                      x4                 x4                     x4
|-----------------------|------------------|----------------------|
|-----------------------|------------------|----------------------|
|-----------------------|------------------|----------------------|
|---33355544433333330---|---3-5-4-3-0000---|---3335554443330000---|
|---33355544433333330---|---3-5-4-3-0000---|---3335554443330000---|
|---33355544433333330---|---3-5-4-3-0000---|---3335554443330000---|
    xxxxxxxxxxxxxxxxx               xxxx                   xxxx

|-----------------------|
|-----------------------|
|-----------------------|
|---0-0---0---0---0-5---|   x4
|---0-0---0---0---0-5---|
|---0-0-3-0-3-0-3-0-5---|


|-------------------|
|-------------------|
|-------------------|
|---000---03030-----|   x8
|---000---03030-----|
|---000-3-03030-5---|
    xxx   xxxxx

|----------------------|
|----------------------|
|----------------------|
|---3335554443330000---|   x4
|---3335554443330000---|
|---3335554443330000---|
                xxxx

|-------------------|
|-------------------|
|-------------------|
|---000---03030-----|   x8
|---000---03030-----|
|---000-3-03030-5---|
    xxx   xxxxx

Kertsi:

|-----------------------------------------------------------|
|-----------------------------------------------------------|
|-----------------------------------------------------------|
|---333555444333-8877-10-10-10-999-12-12-12-11-11-11-3322---|   x2
|---333555444333-8877-10-10-10-999-12-12-12-11-11-11-3322---|
|---333555444333-8877-10-10-10-999-12-12-12-11-11-11-3322---|

|----------------------|
|----------------------|
|----------------------|
|---3335554443330000---|   x4
|---3335554443330000---|
|---3335554443330000---|
                xxxx


|-----------------------|
|-----------------------|
|-----------------------|
|---0-0---0---0---0-5---|   x8
|---0-0---0---0---0-5---|
|---0-0-3-0-3-0-3-0-5---|


Kertsi:

|-----------------------------------------------------------|
|-----------------------------------------------------------|
|-----------------------------------------------------------|
|---333555444333-8877-10-10-10-999-12-12-12-11-11-11-3322---|   x6
|---333555444333-8877-10-10-10-999-12-12-12-11-11-11-3322---|
|---333555444333-8877-10-10-10-999-12-12-12-11-11-11-3322---|

|-----------------------------------------------|
|-----------------------------------------------|
|-----------------------------------------------|
|----------------------87------------------21---|   x4
|----------------------87------------------21---|
|---0-12-0-11-0-10-0-9-87-0-6-0-5-0-4-0-30-21---|

Lopputykitys:

|-----------------|
|-----------------|
|-----------------|
|---00-00-00-00---|
|---00-00-00-00---|
|---00-00-00-00---|
    xx xx xx xx
Tap to rate this tab
# A B C D E F G H I J K L M N O P Q R S T U V W X Y Z