Song name
# A B C D E F G H I J K L M N O P Q R S T U V W X Y Z

Kotiteollisuus - Kaihola tab

Help us improve GuitareTab! Take a short survey!
   Kotiteollisuus-Kaihola

x = dempattuna


Alkuriffi                            
|--------------------------------|
|--------------------------------|
|--------------------------------|
|--0-0----0-0-1-3-0-0-1-3-0-0----|
|--0-0----0-0-1-3-0-0-1-3-0-0----|
|--0-0-1--0-0-1-3-0-0-1-3-0-0-1--|
   x x    x x     x x     x x

Alun näppäily
|-----------------------------------|
|--10---8--4--6-------6---4--0--3---|
|-----------------------------------|
|-----------------------------------|
|-----------------------------------|
|-----------------------------------|


...Rakastamme...
|------------------------------------------------------------------
|------------------------------------------------------------------
|------------------------------------------------------------------
|--5-5-5-5-5-5-5-5-5-5-5-5-5-5-5-0-3-3-3-3-3-3-3-3-3-3-3-3-3-3-3-0-
|--5-5-5-5-5-5-5-5-5-5-5-5-5-5-5-0-3-3-3-3-3-3-3-3-3-3-3-3-3-3-3-0-
|--5-5-5-5-5-5-5-5-5-5-5-5-5-5-5-0-3-3-3-3-3-3-3-3-3-3-3-3-3-3-3-0-
   x x x x x x x x x x x x x x x x x x x x x x x x x x x x x x x x

 --------------------------------------------------------------------------------|
 --------------------------------------------------------------------------------|
 -10-10-10-10-10-10-10-10-10-10-10-10-10-10-10-0-3-3-3-3-3-3-3-3-0-0-0-0-0-0-0-0-|
 -10-10-10-10-10-10-10-10-10-10-10-10-10-10-10-0-3-3-3-3-3-3-3-3-0-0-0-0-0-0-0-0-|
 -10-10-10-10-10-10-10-10-10-10-10-10-10-10-10-0-3-3-3-3-3-3-3-3-0-0-0-0-0-0-0-0-|
  x  x  x  x  x  x  x  x  x  x  x  x  x  x  x  x x x x x x x x x x x x x x x x x



1. Kertsi
|---------------------------------------------------------------------------|
|---------------------------------------------------------------------------|
|---------------------------------------------------------------------------|
|--10-10-10-10-10-10-10-10-2-2-2-2-2-2-2-2-7-7-7-7-7-7-7-7-3-3-3-3-3-3-3-3--|
|--10-10-10-10-10-10-10-10-2-2-2-2-2-2-2-2-7-7-7-7-7-7-7-7-3-3-3-3-3-3-3-3--|
|--10-10-10-10-10-10-10-10-2-2-2-2-2-2-2-2-7-7-7-7-7-7-7-7-3-3-3-3-3-3-3-3--|


2. Kertsi                                   1-3.                              4.
|------------------------------------------|---------------------------------|-----------------|
|------------------------------------------|---------------------------------|-----------------|
|------------------------------------------|---------------------------------|-----------------|
|--10-10-10-10-10-10-10-10-2-2-2-2-2-2-2-2-|-7-7-7-7-7-7-7-7-3-3-3-3-3-3-3-3-|-7-7-7-7-7-7-7-7-|
|--10-10-10-10-10-10-10-10-2-2-2-2-2-2-2-2-|-7-7-7-7-7-7-7-7-3-3-3-3-3-3-3-3-|-7-7-7-7-7-7-7-7-|
|--10-10-10-10-10-10-10-10-2-2-2-2-2-2-2-2-|-7-7-7-7-7-7-7-7-3-3-3-3-3-3-3-3-|-7-7-7-7-7-7-7-7-|
                                                                               x x x x x x x x


Lopussa:
|-----------------------------------------------------------------------|
|-----------------------------------------------------------------------|
|-----------------------------------------------------------------------|
|--10-10-10-10-...-5-5-5-5-...-7-7-7-7-...-3-3-3-3-...-2-2-2-2-2-5-2-2--|
|--10-10-10-10-...-5-5-5-5-...-7-7-7-7-...-3-3-3-3-...-2-2-2-2-2-5-2-2--|
|--10-10-10-10-...-5-5-5-5-...-7-7-7-7-...-3-3-3-3-...-2-2-2-2-2-5-2-2--|


Näppäily lopussa:
|---------------------------------------------------------------------------------|
|---------5-5-5-6-5-3-5-3----5-5-5-6-5-3-5------5-5-5-6-5-3-5---------------------|
|--5---------------------------------------2------------------5---5--4--4-7-4--5--|
|---------------------------------------------------------------------------------|
|---------------------------------------------------------------------------------|
|---------------------------------------------------------------------------------|
Related for Kaihola tab