Guitaretab - guitar tabs
Song name
# A B C D E F G H I J K L M N O P Q R S T U V W X Y Z

Kotiteollisuus - Pullon Henki tab

Artist: Kotiteollisuus
Album: Iankaikkinen
Song: Pullon Henki

Tabbed by: JoonasM (e-mail: joonas_180@hotmail.com)




      Riff A
d#|------------------------------
a#|------------------------------
f#|------------------------------
c#|-0-5-6-7-10--7-5--7-5---------
g#|-0-5-6-7-10--7-5--7-5--8-7~~~-
c#|-0-5-6-7-10--7-5--7-5---------


d#|--------------------------------
a#|--------------------------------
f#|--------------------------------
c#|-0-5-6-7-10--7-5-7---7--5-7---7-
g#|-0-5-6-7-10--7-5-7-5-7--5-7-5~7-
c#|-0-5-6-7-10--7-5-7---7--5-7---7-

[ Tab from: http://www.guitaretab.com/k/kotiteollisuus/91334.html ]
      Riff B
d#|--------------------------------
a#|--------------------------------
f#|--------------------------------
c#|-0-5-6-7-12-----0-5-6-7-10------
g#|-0-5-6-7-12-----0-5-6-7-10------
c#|-0-5-6-7-12-----0-5-6-7-10------


      Riff C
d#|---------------------------------
a#|---------------------------------
f#|---------------------------------
c#|-0-0-0-0-3-0-0-5-0-0-0-0-0-0-0-0-
g#|-0-0-0-0-3-0-0-5-0-0-0-0-0-0-0-0-
c#|-0-0-0-0-3-0-0-5-0-0-0-0-0-0-0-0-


      Chorus
d#|-------------------------------
a#|-------------------------------
f#|-------------------------------
c#|-12-0----3-3----5-5----7-7-3-2-
g#|-12-0----3-3----5-5----7-7-3-2-
c#|-12-0----3-3----5-5----7-7-3-2-


Rifforder : Ax4 Bx2 Cx8 Chorusx2 Ax4 Bx2 Chorusx6 Cx30(Solo)
Related for Pullon Henki tab
Advertisement will be closed in 10 seconds