Song name
# A B C D E F G H I J K L M N O P Q R S T U V W X Y Z

Kotiteollisuus - Iankaikkinen tab

Vire C-G-C-F-A-D    * = Dempattuna

D----------------------------------------------------------------------------|
A----------------------------------------------------------------------------|
C-000---000-0-0000-000-0-666-666-000---0006506500----------------------------|
G-000---000-0-0000-000-0-666-666-000---0006506500--555556666333--------------|
C-000---000-0-0000-000-0-666-666-000---0006506500----------------------------|

D----------------------------------------------------------------------------|
A----------------------------------------------------------------------------|
F----------------------------------------------------------------------------|
C----------------------------------------------------------------------------|
G----------------------------------------------------------------------------|
C-000-000-0-000-111--111--111-1-111------------------------------------------|
  *** *** * *** ***  ***  *** * ***

D----------------------------------------------------------------------------|
A----------------------------------------------------------------------------|
F----------------------------------------------------------------------------|
C----------------------------------------------------------------------------|
G----------------------------------------------------------------------------|
C-000--000-0-000----11-1136536-----------------------------------------------|
  ***  *** * ***    ** **

Kertsi

D----------------------------------------------------------------------------|
A----------------------------------------------------------------------------|
F----------------------------------------------------------------------------|
C-0-0-0-0-7-7-7-7-0-0-0-0-0-0-0-0-8-8-8-8-8-8-8-8-10-10-10-10-10-10-10-10----|
G-0-0-0-0-7-7-7-7-0-0-0-0-0-0-0-0-8-8-8-8-8-8-8-8-10-10-10-10-10-10-10-10----|
C-0-0-0-0-7-7-7-7-0-0-0-0-0-0-0-0-8-8-8-8-8-8-8-8-10-10-10-10-10-10-10-10----|

D----------------------------------------------------------------------------|
A----------------------------------------------------------------------------|
F----------------------------------------------------------------------------|
C-7-7-7-7-7-7-7-7-8-8-8-8-8-8-8-8-5-5-5-5-7-7-7-7----------------------------|
G-7-7-7-7-7-7-7-7-8-8-8-8-8-8-8-8-5-5-5-5-7-7-7-7----------------------------|
C-7-7-7-7-7-7-7-7-8-8-8-8-8-8-8-8-5-5-5-5-7-7-7-7----------------------------|

By henkka - Kitara Vire: C-G-C-F-A-D - * Dempattuna.
Tap to rate this tab
# A B C D E F G H I J K L M N O P Q R S T U V W X Y Z