Song name
# A B C D E F G H I J K L M N O P Q R S T U V W X Y Z

Kotiteollisuus - Kadonneet tab

Vire C-G-C-F-A-D   * = Dempattuna   ^ = Jätä sointu soimaan

D----------------------------------------------------------------------------|
A----------------------------------------------------------------------------|
F----------------------------------------------------------------------------|
C-0-2---0-3---0-6---0-2---0-3---2--------------------------------------------|
G-0-2---0-3---0-6---0-2---0-3---2--------------------------------------------|
C-0-2---0-3---0-6---0-2---0-3---2--------------------------------------------|

D----------------------------------------------------------------------------|
A----------------------------------------------------------------------------|
F----------------------------------------------------------------------------|
C-0-2---0-3---0-6---0-2---0-3------------------------------------------------|
G-0-2---0-3---0-6---0-2---0-3------------------------------------------------|
C-0-2---0-3---0-6---0-2---0-3------------------------------------------------|
                            ^
Tyhjään Pihaan..

D---------------------------------------------------------------------------|
A---------------------------------------------------------------------------|
F---------------------------------------------------------------------------|
C-0-0-------------0-0---------------1-1------------0-0----------------------|
G-0-0-------------0-0---------------1-1------------0-0----------------------|
C-0-0-------------0-0---------------1-1------------0-0----------------------|

D---------------------------------------------------------------------------|
A---------------------------------------------------------------------------|
F---------------------------------------------------------------------------|
C-10-10-----------10-10-------------1-1------------0-0----0-0---------------|
G-10-10-----------10-10-------------1-1------------0-0----0-0---------------|
C-10-10-----------10-10-------------1-1------------0-0----0-0-1-------------|

D---------------------------------------------------------------------------|
A---------------------------------------------------------------------------|
F---------------------------------------------------------------------------|
C---------------------------------------------------------------------------|
G-0-0-0-0-0-0-0-0-0-0-0-0-0-0-0-0-0-1-1-1-1-1-1-1-0-0-0-0-0-0-0-0-----------|
C-0-0-0-0-0-0-0-0-0-0-0-0-0-0-0-0-0-1-1-1-1-1-1-1-0-0-0-0-0-0-0-0-----------|
  * * * * * * * * * * * * * * * * * * * * * * * * * * * * * * * *
D---------------------------------------------------------------------------|
A---------------------------------------------------------------------------|
F---------------------------------------------------------------------------|
C---------------------------------------------------------------------------|
G-10-10-10-10-10-10-10-10-10-10-10-10-10-10-1-1-1-1-1-1-1-1-0-0-0-0-0-0-----|
C-10-10-10-10-10-10-10-10-10-10-10-10-10-10-1-1-1-1-1-1-1-1-0-0-0-0-0-0-----|

kertsi

D----------------------------------------------------------------------------|
A----------------------------------------------------------------------------|
F----------------------------------------------------------------------------|
C-3-3-3-3-3-3-3-3-10-10-10-10-10-10-10-5-5-5-5-5-5-5-5-8-8-8-8-8-8-8-8-------|
G-3-3-3-3-3-3-3-3-10-10-10-10-10-10-10-5-5-5-5-5-5-5-5-8-8-8-8-8-8-8-8-------|
C-3-3-3-3-3-3-3-3-10-10-10-10-10-10-10-5-5-5-5-5-5-5-5-8-8-8-8-8-8-8-8-------|

D----------------------------------------------------------------------------|
A----------------------------------------------------------------------------|
F----------------------------------------------------------------------------|
C-3-3-3-3-3-3-3-3-10-10-10-10-10-10-10-10-3-3-3-3-3-3-3-3-3-3-3-3-3-3--------|
G-3-3-3-3-3-3-3-3-10-10-10-10-10-10-10-10-3-3-3-3-3-3-3-3-3-3-3-3-3-3--------|
C-3-3-3-3-3-3-3-3-10-10-10-10-10-10-10-10-3-3-3-3-3-3-3-3-3-3-3-3-3-3-0------|
                                          * * * * * * * * * * * * * *
By henkka Kitara Vire: C-G-C-F-A-D   * = Dempattuna  ^ = jätä sointu soimaan
Tap to rate this tab
# A B C D E F G H I J K L M N O P Q R S T U V W X Y Z