Song name
# A B C D E F G H I J K L M N O P Q R S T U V W X Y Z

Kotiteollisuus - Harakat tab

Kitara Vire: C-G-C-F-A-D

D----------------------------------------------------------------------------|
A----------------------------------------------------------------------------|
F----------------------------------------------------------------------------|
C--0-0--0-----0-----0--0-----------------------------------------------------|
G--0-0--0-----0-----0--0-5-5-4-----------------------------------------------|
C--0-0--0-2b--0-2b--0--0-----------------------------------------------------|

  olet laskeutunut...
D----------------------------------------------------------------------------|
A----------------------------------------------------------------------------|
F----------------------------------------------------------------------------|
C--5-5--5-5--5-5--5-5--5--5--0-0--0-----0-----0--0---------------------------|
G--5-5--5-5--5-5--5-5--5--5--0-0--0-----0-----0--0-5-5-4---------------------|
C--5-5--5-5--5-5--5-5--5--5--0-0--0-2b--0-2b--0--0---------------------------|

Kertsi

D--------------------------|-------------------------------------------------|
A--------------------------|-------------------------------------------------|
F--------------------------|-------------------------------------------------|
C--0--1--2---0--1--2--0-3--|--0--1--2--3-0--1--2--0-3------------------------|
G--0--1--2---0--1--2--0-3--|--0--1--2--3-0--1--2--0-3------------------------|
C--0--1--2---0--1--2--0-3--|--0--1--2--3-0--1--2--0-3------------------------|

Lopetus

D----------------------------------------------------------------------------|
A----------------------------------------------------------------------------|
F----------------------------------------------------------------------------|
C--0-0--0-----0-----0--0--12-12-11-------------------------------------------|
G--0-0--0-----0-----0--0--12-12-11-------------------------------------------|
C--0-0--0-2b--0-2b--0--0--12-12-11-------------------------------------------|

By henkka - 2007 - Kitara Vire: C-G-C-F-A-D
Tap to rate this tab
# A B C D E F G H I J K L M N O P Q R S T U V W X Y Z