Song name
# A B C D E F G H I J K L M N O P Q R S T U V W X Y Z

Kotiteollisuus - Keskatu tab

Kitara Vire: C-G-C-F-A-D [ : = jätä sointu soimaan ] X = kertaa

D----------------------------------------------------------------------------|
A----------------------------------------------------------------------------|
F----------------------------------------------------------------------------|
C--2--2--0-2--2-2--0-2--2-2--0-2--2-5--7-------------------------------------|
G--2--2--0-2--2-2--0-2--2-2--0-2--2-5--7-------------------------------------|
C--2--2--0-2--2-2--0-2--2-2--0-2--2-5--7-------------------------------------|

   Polttaa kesäkatu miestä...
D----------------------------------------------------------------------------|
A----------------------------------------------------------------------------|
F----------------------------------------------------------------------------|
C--2-------------------------------------------------------------------------|
G--2-------------------------------------------------------------------------|
C--2-------------------------------------------------------------------------|
   :

    Autojen pakokaasut...
D----------------------------------------------------------------------------|
A----------------------------------------------------------------------------|
F----------------------------------------------------------------------------|
C--9--9--9--9--2--2--2--2--2--2--2--2----------------------------------------|
G--9--9--9--9--2--2--2--2--2--2--2--2----------------------------------------|
C--9--9--9--9--2--2--2--2--2--2--2--2----------------------------------------|

Kertsi

D--------------|     |D--------------|
A--------------|     |A--------------|
F--------------|     |F--------------|
C--7--7--0--0--| 4X  |C--4--4--9--9--| 4X
G--7--7--0--0--|     |G--4--4--9--9--|
C--7--7--0--0--|     |C--4--4--9--9--|

Välisoitto

D----------------------------------------------------------------------------|
A----------------------------------------------------------------------------|
F--9--9-9-9--9-9-9-7-7--7--7-7-7-6-6--6--6-6-6-4-4---------------------------|
C--9--9-9-9--9-9-9-7-7--7--7-7-7-6-6--6--6-6-6-4-4--5--7---------------------|
G---------------------------------------------------5--7---------------------|
C---------------------------------------------------5--7---------------------|

Lopetus

D-----|
F-----|
C--2--|
G--2--|
C--2--|
   :

By henkka 2007 - : = Jätä sointu soimaan - Kitara Vire: C-G-C-F-A-D.
Tap to rate this tab
# A B C D E F G H I J K L M N O P Q R S T U V W X Y Z