Song name
# A B C D E F G H I J K L M N O P Q R S T U V W X Y Z

Kotiteollisuus - Rukous tab

Kitara Vire: C-G-C-F-A-D

D------------------------------------------------------------------------------|
A------------------------------------------------------------------------------|
F------------------------------------------------------------------------------|
C--0--1-3----0-1--3--1--3------------------------------------------------------|
G--0--1-3-5--0-1--3--1--3------------------------------------------------------|
C--0--1-3----0-1--3--1--3------------------------------------------------------|

  Ota paha pois!
D------------------------------------------------------------------------------|
A------------------------------------------------------------------------------|
F------------------------------------------------------------------------------|
C--5-5--5-5--5-5--5-5--5-5--5-5--5-5--5-5--5-5--5-5----------------------------|
G--5-5--5-5--5-5--5-5--5-5--5-5--5-5--5-5--5-5--5-5--5b------------------------|
C--5-5--5-5--5-5--5-5--5-5--5-5--5-5--5-5--5-5--5-5----------------------------|

By henkka 2007 (From album -aamen) 1998 - Track 10
Tap to rate this tab
# A B C D E F G H I J K L M N O P Q R S T U V W X Y Z