Guitaretab - guitar tabs
Song name
# A B C D E F G H I J K L M N O P Q R S T U V W X Y Z

Kotiteollisuus - Kukko Laulaa tab

Kitara Vire C#G#C#F#A#D Tablat Selvitti: Henkka

* = Dempattuna

Alussa
D----------------------------------------------------------------------------|
A----------------------------------------------------------------------------|
F----------------------------------------------------------------------------|
C-0-0-12-11-10-9-7-6-5--5-7-7-7-7-7------------------------------------------|
G-0-0-12-11-10-9-7-6-5--5-7-7-7-7-7------------------------------------------|
C-0-0-12-11-10-9-7-6-5--5-7-7-7-7-7-5b---------------------------------------|

Tarjottiin Hedelmää...
D----------------------------------------------------------------------------|
A----------------------------------------------------------------------------|
F----------------------------------------------------------------------------|
C-0-0--0-0--0-0--0-0--0-0-0-0-0-0-0--0-0-0-0-0-0-0---------------------------|
G-0-0--0-0--0-0--0-0--0-0-0-0-0-0-0--0-0-0-0-0-0-0---------------------------|
C-0-0--0-0--0-0--0-0--0-0-0-0-0-0-0--0-0-0-0-0-0-0---------------------------|
                      * * * * * * *  * * * * * * *

Kertsi
[ Tab from: http://www.guitaretab.com/k/kotiteollisuus/97897.html ]
Taas tulee yö ja on niin..
D----------------------------------------------------------------------------|
A----------------------------------------------------------------------------|
F----------------------------------------------------------------------------|
C-17-17-17-17-17-17-17-17-17-17-17-17-17-17-17-16-16-16-16-16-16-14-12-------|
G-17-17-17-17-17-17-17-17-17-17-17-17-17-17-17-16-16-16-16-16-16-14-12-------|
C-17-17-17-17-17-17-17-17-17-17-17-17-17-17-17-16-16-16-16-16-16-14-12-------|
                                                                             Ajatus Paleltaa..
D----------------------------------------------------------------------------|
A----------------------------------------------------------------------------|
F----------------------------------------------------------------------------|
C-12-12-12-12-12-14-15-15-15-15-15-15-15-15-15-15-15-15-14-14-14-14-14-12-10-|
G-12-12-12-12-12-14-15-15-15-15-15-15-15-15-15-15-15-15-14-14-14-14-14-12-10-|
C-12-12-12-12-12-14-15-15-15-15-15-15-15-15-15-15-15-15-14-14-14-14-14-12-10-|

Kappale saatavilla joko Tämän taivaan alla -sinkulta tai murheen mailla
1996 - 2007 -kokoelmasta. Tablat Selvitti: henkka.
Related for Kukko Laulaa tab
Advertisement will be closed in 10 seconds