Song name
# A B C D E F G H I J K L M N O P Q R S T U V W X Y Z

Kotiteollisuus - Aamusta Aamuun tab

Vire: C#G#C#F#A#D Selvitti: Henkka * = Dempattuna

Alku
D----------------------------------------------------------------------------|
A----------------------------------------------------------------------------|
F----------------------------------------------------------------------------|
C----------------------------------------------------------------------------|
G----------------------------------------------------------------------------|
C-10-0-0-3-0-0-5-0-0-2-0-0-9-10-9--------------------------------------------|

D----------------------------------------------------------------------------|
A----------------------------------------------------------------------------|
F----------------------------------------------------------------------------|
C-10-0-0-3-0-0-5-0-0-2-0-0-9-10-9--------------------------------------------|
G-10-0-0-3-0-0-5-0-0-2-0-0-9-10-9--------------------------------------------|
C-10-0-0-3-0-0-5-0-0-2-0-0-9-10-9--------------------------------------------|

D----------------------------------------------------------------------------|
A----------------------------------------------------------------------------|
F----------------------------------------------------------------------------|
C-000-----------------000-0-0-0-0--------------------------------------------|
G-000-----------------000-0-0-0-0--------------------------------------------|
C-000-3-0-3-0-3-0-3-5-000-0-0-0-0-3-0-3-0-3-0-3-5----------------------------|
                          * * * *
Korkeita Tornitaloja..
D----------------------------------------------------------------------------|
A----------------------------------------------------------------------------|
F----------------------------------------------------------------------------|
C-0-0-0-0-0-0-0-0---0-0---0-0-------5-5-5-5-5-5-5-3-3-3-3-2-2-2--------------|
G-0-0-0-0-0-0-0-0---0-0---0-0-------5-5-5-5-5-5-5-3-3-3-3-2-2-2--------------|
C-0-0-0-0-0-0-0-0-3-0-0-2-0-0-2-3-5-5-5-5-5-5-5-5-3-3-3-3-2-2-2-2b-----------|
  * * * * * * * *   * *   * *       * * * * * * * * * * * * * *

Olen niin kaukana..
D----------------------------------------------------------------------------|
A----------------------------------------------------------------------------|
F----------------------------------------------------------------------------|
C-000---00---00---0----------------------------------------------------------|
G-000---00---00---0----------------------------------------------------------|
C-000-3-00-5-00-3-0-2--------------------------------------------------------|

On Taivas Liian..
D-----------------------------------------------------------------------------|
A-----------------------------------------------------------------------------|
F-----------------------------------------------------------------------------|
C-10-10-10-10-10-10-10-10-10-10-10-10-10-10-10-10-7-7-7-7-7-7-7-7-7-7-7-7-7-7-|
G-10-10-10-10-10-10-10-10-10-10-10-10-10-10-10-10-7-7-7-7-7-7-7-7-7-7-7-7-7-7-|
C-10-10-10-10-10-10-10-10-10-10-10-10-10-10-10-10-7-7-7-7-7-7-7-7-7-7-7-7-7-7-|

D----------------------------------------------------------------------------|
A----------------------------------------------------------------------------|
F----------------------------------------------------------------------------|
C-6-5-5-5-5-5-5-5-5-5-5-5-5-5-5-5-5-3-3-3-3-3-3-3-3-3-3-3-3-3-3-3-3----------|
G-6-5-5-5-5-5-5-5-5-5-5-5-5-5-5-5-5-3-3-3-3-3-3-3-3-3-3-3-3-3-3-3-3----------|
C-6-5-5-5-5-5-5-5-5-5-5-5-5-5-5-5-5-3-3-3-3-3-3-3-3-3-3-3-3-3-3-3-3----------|
Tap to rate this tab
# A B C D E F G H I J K L M N O P Q R S T U V W X Y Z