Song name
# A B C D E F G H I J K L M N O P Q R S T U V W X Y Z

Kotiteollisuus - Kaihola Live tab

Kaihola Live Solo Selvitti: henkka Vire C#G#C#F#A#D

D----------------------------------------------------------------------------|
A----------------------------------------------------------------------------|
F----------------------------------------------------------------------------|
C-14-14-14-15-14-12-14-12--14-14-14-15-14-12-14-7----------------------------|
G----------------------------------------------------------------------------|
C----------------------------------------------------------------------------|

D----------------------------------------------------------------------------|
A----------------------------------------------------------------------------|
F----------------------------------------------------------------------------|
C-14-14-14-15-14-12-14-10-9-9-12-9-10----------------------------------------|
G----------------------------------------------------------------------------|
C----------------------------------------------------------------------------|

D----------------------------------------------------------------------------|
A----------------------------------------------------------------------------|
F----------------------------------------------------------------------------|
C-14-14-14-14-14-14-14-12-10-10-10-10-10-10-10-------------------------------|
G----------------------------------------------------------------------------|
C----------------------------------------------------------------------------|

D----------------------------------------------------------------------------|
A----------------------------------------------------------------------------|
F------------------------------------------------------------------14-12-----|
C-12-14-15-14-12-14-14-14-14-14-14-12-10-10-10-10-10-10-9-9-9-9-9-9------14--|
G----------------------------------------------------------------------------|
C----------------------------------------------------------------------------|
Tap to rate this tab
# A B C D E F G H I J K L M N O P Q R S T U V W X Y Z