Song name
# A B C D E F G H I J K L M N O P Q R S T U V W X Y Z

Kotoko - Genei tab

-------------------------------------------------------------------------------
			     Genei (Intro) - KOTOKO
-------------------------------------------------------------------------------
Tabbed by: Tim Murphy
Email: tim3000@optonline.net

Tuning: standard


A cool little riff played throughout the song, in addition to the intro.


Le all ring through

        e   s e   e   e   e   q+s     e   s e   e   e   e   q+s
e||-------------------------------|----------------------------------------|
B||o--------------1-------0-------|-------------0--------------------------|
G||---------------------------0---|---------------------2------------------|
D||---------0h2-------3-----------|-------0h2-------3-------2--------------|
A||o----0-------------------------|---0------------------------------------|
E||-------------------------------|----------------------------------------|

        e   s e   e   e   e   q+s     e   s e   e.  e.  e  s e
e|--------------------------------|-------------3---2---------------------||
B|----------------1-------0-------|--------------------------------------o||
G|----------------------------0---|-------0h2-----------5--5/7------------||
D|----------0h2-------3-----------|---0-----------------5--5/7------------||
A|------0-------------------------|--------------------------------------o||
E|--------------------------------|---------------------------------------||
                                                        ^
                                                    very stacatto

| /  slide up
| \  slide down
| h  hammer-on
| p  pull-off
| ~  vibrato
| +  harmonic
| x  Mute note
===============================================================================
Tap to rate this tab
 
# A B C D E F G H I J K L M N O P Q R S T U V W X Y Z