Song name
# A B C D E F G H I J K L M N O P Q R S T U V W X Y Z

Kottke Leo - Stealing tab

Stealing (Mudlark)                                


                                                                      Leo Kottke
Trasc. Alberto Badiali (1/2 Tone Low)                               



     G                       C                         F                        
E||---------------------||--------3p-0p-------------|--------------------------|
B||---------------------||-----------------3--------|-----------1--------------|
G||---------------------||*----------------------0--|-----------------2-----0--|
D||---------------------||*-------2-----------2-----|--------3-----------3-----|
A||-----------0----2----||---3----------3-----------|--------------------------|
E||------3--------------||--------------------------|--0h-1--------1-----------|


  C                          Bm7/G                    
--------3p-0p-------------|--------------------------|
-----1-----------3--------|-----------0-----------0--|
-----------------------0--|-----------------0h-2-----|
--------2-----------0-----|--------0-----------0-----|
--3-----------3-----------|--------------------------|
--------------------------|--3h-5--------3-----------|


  C                          F                          C          D7           
--------3p-0p-------------|--------------------------|-------------------------|
-----1-----------3--------|-----------1--------------|-------1--------1--------|
-----------------------0--|-----------------2-----0--|----------0h-2--------0--|
--------2-----------0-----|--------3-----------3-----|-------2-----------0-----|
--3-----------3-----------|--------------------------|--3----------------------|
--------------------------|--0h-1--------1-----------|-------------2-----------|


  F5   G    C                                         Fadd9       G           
------------------------||-------------------------|-----1-----3p------------|
--1----0----1-----------||-------1--------3-----1--|-------------------------|
--------------------0--*||----------0--------------|--2-------------------0--|
-----------------------*||-------2-----------0h-3--|--------3----------0-----|
------------3-----------||--3----------2-----------|--0----------------------|
--1----3---------3------||-------------------------|--------------3----------|


  F                          Cadd9                     C                       
--------5h-7--------------|--0----------------------|-------------------------|
-----6-----------6p-5-----|-----3h-1----------------|-------1--------3-----1--|
--------5--------------7--|--------------0-------0--|----------0--------------|
--------------7-----------|-----------0-------0-----|-------2-----------0h-3--|
--8-----------------8-----|--3-----------2----------|--3----------2-----------|
--------------------------|--------3----------------|-------------------------|


  Fadd9       G             F                          G                        
-----1-----3p------------|--------5\-3--------------|--------------------------|
-------------------------|-----6-----------0-----1--|--------------------------|
--2-------------------0--|--------------------------|-----0-----0-----0-----0--|
--------3----------0-----|--------7-----------------|--------------------------|
--0----------------------|--8-----------0-----2-----|--3-----------0-----2-----|
--------------3----------|--------------------------|--------3-----------------|


  A                          F                         Cadd9                   
--------------------------|-------------------------|-------------------------|
-----1--------------------|--------3r---3-----------|--3r---3-----1-----------|
--------------0h-2-----0h-|--2-------------2-----2--|----------2-----0--------|
--------1h-2--------2-----|-----3-------3-----------|-------2-----------0h-2--|
--3-----------3-----------|--------0----------------|--3----------3-----------|
--------------------------|--1----------------1-----|-------------------------|


  Bm7/G                      C                          F                       
--------------------------|--------------------------|-------------------------|
-----------0-----------0--|-----1--------------------|--------3r---3-----------|
-----------------0h-2-----|-----------------2h-0--0--|--2-------------2-----2--|
--------0-----------0-----|--------1h-2--------2-----|-----3-------3-----------|
--------------------------|--3-----------3-----------|--------0----------------|
--3h-5--------3-----------|--------------------------|--1----------------1-----|


  Cadd9                     F5   G    C             C                        
-------------------------|-----------------------|-----------------3h-5-----|
--3r---3--1-----1--------|--1----0----1----------|--------3h-5--------------|
-------------2--------0--|--------------------0--|-----5-----------------5--|
-------2-----------0-----|-----------------------|--------5-----------5-----|
--3----------------------|------------3----------|--3-----------3-----------|
-------------2-----------|--1----3---------3-----|--------------------------|


                                                      
--5p-3-----6p-5-----3-----|--------------------------|
-----------------6-----6--|--------3h-5-----5p-3-----|
--------------------------|-----5-----------------5--|
--------3-----------3-----|--------5-----------5-----|
--3-----------3-----------|--3-----------3-----------|
--------------------------|--------------------------|


  G                          C                        
--------------3-----------|-----------------3h-5-----|
--------0h-3--------------|--------3h-5--------------|
-----0-----------0--------|-----5-----------------5--|
--------0-----------------|--------5-----------5-----|
--------------------0h-2--|--3-----------3-----------|
--3-----------3-----------|--------------------------|


                                                              G    C          
--5p-3-----6p-5-----3-----|--------------------------|-----------------------|
-----------------6-----6--|--------3h-5-----5p-3-----|--------0----1---------|
--------------------------|-----5-----------------5--|-----0-----------------|
--------3-----------3-----|--------5-----------5-----|-----------------------|
--3-----------3-----------|--3-----------3-----------|--3----------3---------|
--------------------------|--------------------------|--------3---------3----|


                            Fadd9       G             F                        
-------------------------|-----1-----3p------------|--------5h-7--------------|
-------1--------3-----1--|-------------------------|-----6-----------6p-5-----|
----------0--------------|--2-------------------0--|--------5--------------7--|
-------2-----------0h-3--|--------3----------0-----|--------------7-----------|
--3----------2-----------|--0----------------------|--8-----------------8-----|
-------------------------|--------------3----------|--------------------------|


  Cadd9                     C                         Fadd9       G           
--0----------------------|-------------------------|-----1-----3p------------|
-----3h-1----------------|-------1--------3-----1--|-------------------------|
--------------0-------0--|----------0--------------|--2-------------------0--|
-----------0-------0-----|-------2-----------0h-3--|--------3----------0-----|
--3-----------2----------|--3----------2-----------|--0----------------------|
--------3----------------|-------------------------|--------------3----------|


  F                    C                              
--------5\-3--------------|--------------------------|
-----6-----------0-----1--|-----------1--------------|
--------------------------|-----0-----------0--------|
--------7-----------------|--------2-----------------|
--8-----------0-----2-----|--3-----------3-----2h-0--|
--------------------------|--------------------------|


    G     F G    C/D   C  Bm    F                        
|-------------7--------8p-7--|-----1-----5--------------|
|------0--6/8-------8--------|--------------------------|
|*--0-----5/7----0-----9p-7--|-----------------0--------|
|*---------------------------|--------3--------------3--|
|----------------------------|--------------------0-----|
|----------------------------|--1-----------1-----------|


  Em    D#F    A#7M  A# Am          F  Em G             
------------5--------6p-5--|--------1p-0--------3-----||
--------4/6-------6--------|-----1-----------0--------||
-----0--3/5----------7p-5--|--------2p-0--------0----*||
---------------------------|-------------------------*||
--0------------0-----------|--3-----------------------||
---------------------------|--------------3-----------||


  C                                                   
-----------------3h-5-----|--5p-3-----6p-5-----3-----|
--------3h-5--------------|-----------------6-----6--|
-----5-----------------5--|--------------------------|
--------5-----------5-----|--------3-----------3-----|
--3-----------3-----------|--3-----------3-----------|
--------------------------|--------------------------|


                             G                        
--------------------------|--------------3-----------|
--------3h-5-----5p-3-----|--------0h-3--------------|
-----5-----------------5--|-----0-----------0--------|
--------5-----------5-----|--------0-----------------|
--3-----------3-----------|--------------------0h-2--|
--------------------------|--3-----------3-----------|


  C                                                   
-----------------3h-5-----|--5p-3-----6p-5-----3-----|
--------3h-5--------------|-----------------6-----6--|
-----5-----------------5--|--------------------------|
--------5-----------5-----|--------3-----------3-----|
--3-----------3-----------|--3-----------3-----------|
--------------------------|--------------------------|


                                   G    C          
--------------------------|-----------------------|
--------3h-5-----5p-3-----|--------0----1---------|
-----5-----------------5--|-----0-----------------|
--------5-----------5-----|-----------------------|
--3-----------3-----------|--3----------3---------|
--------------------------|--------3---------3----|


    G     F G    C/D   C  Bm    F                        
|-------------7--------8p-7--|-----1-----5--------------|
|------0--6/8-------8--------|--------------------------|
|*--0-----5/7----0-----9p-7--|-----------------0--------|
|*---------------------------|--------3--------------3--|
|----------------------------|--------------------0-----|
|----------------------------|--1-----------1-----------|


  Em    D#F    A#7M  A# Am          F  Em G             
------------5--------6p-5--|--------1p-0--------3-----||
--------4/6-------6--------|-----1-----------0--------||
-----0--3/5----------7p-5--|--------2p-0--------0----*||
---------------------------|-------------------------*||
--0------------0-----------|--3-----------------------||
---------------------------|--------------3-----------||


  C                                                   
-----------------3h-5-----|--5p-3-----6p-5-----3-----|
--------3h-5--------------|-----------------6-----6--|
-----5-----------------5--|--------------------------|
--------5-----------5-----|--------3-----------3-----|
--3-----------3-----------|--3-----------3-----------|
--------------------------|--------------------------|


                             G                        
--------------------------|--------------3-----------|
--------3h-5-----5p-3-----|--------0h-3--------------|
-----5-----------------5--|-----0-----------0--------|
--------5-----------5-----|--------0-----------------|
--3-----------3-----------|--------------------0h-2--|
--------------------------|--3-----------3-----------|


  C                                                   
-----------------3h-5-----|--5p-3-----6p-5-----3-----|
--------3h-5--------------|-----------------6-----6--|
-----5-----------------5--|--------------------------|
--------5-----------5-----|--------3-----------3-----|
--3-----------3-----------|--3-----------3-----------|
--------------------------|--------------------------|


                                   G    C                             
--------------------------|----------------------|------------------||
--------3h-5-----5p-3-----|--------0----1--------|------------------||
-----5-----------------5--|-----0----------------|------------------||
--------5-----------5-----|----------------------|------------------||
--3-----------3-----------|--3----------3--------|------------------||
--------------------------|--------3-------------|------------------||
Tap to rate this tab
# A B C D E F G H I J K L M N O P Q R S T U V W X Y Z