Song name
# A B C D E F G H I J K L M N O P Q R S T U V W X Y Z

Kottonmouth Kings - Tangerine Sky tab

  intro (x3)
e|-------------------------------------------------------------------------|
B|-------------------------------------------------------------------------|
G|-------8------------5----------4---------3-------------------------------|
D|----9----9--------6----6-----5---5-----4---3-----------------------------|
A|-------------------------------------------------------------------------|
E|-7-------------4-----------3--------2------------------------------------|

  verse (x28)
e|-------------------------------------------------------------------------|
B|----------3-----------------4------------3----------------2--------------|
G|-------4-----4-----------5----5--------4----4----------3-----3-----------|
D|-5-55--------------6-66-----------5-55----------4-44---------------------|
A|-------------------------------------------------------------------------|
E|-------------------------------------------------------------------------|

  pre-chorus (before 2nd chorus) (x2)
e|-------------------------------------------------------------------------|
B|-------------------------------------------------------------------------|
G|-------------------------------------------------------------------------|
D|-------------------------------------------------------------------------|
A|-------------------------------------------------------------------------|
E|-----777777--444444--33333432222222--------------------------------------|

order:
intro
verse (reapeat till pre chorus)
pre-chorus
intro part (again twice)
verse (till the intro part comes in again)
intro part (till end)
Tap to rate this tab
 
# A B C D E F G H I J K L M N O P Q R S T U V W X Y Z