Song name
# A B C D E F G H I J K L M N O P Q R S T U V W X Y Z

Kottonmouth Kings - Tangerine Sky tab

-------------------------------------------------------------------------------
			    Tangerine Sky - Kottonmouth Kings
-------------------------------------------------------------------------------
Tabbed by:zack
Email:saczack@hotmail.com

Tuning:
       (intro) clean
e|--------------------------------------------------------------------------|
B|--------------------------------------------------------------------------|
G|-------8------------5----------4---------3--------------------------------|
D|----9----9--------6----6-----5---5-----4---3------------------------------|
A|--------------------------------------------------------------------------|
E|-7-------------4-----------3--------2-------------------------------------|

      (verse) clean
e|-----------------------------------------------------------------------------|
B|----------7-----------------4------------3----------------2------------------|
G|-------8-----8-----------5----5--------4----4----------3-----3---------------|
D|-9 99--------------6 66-----------5 55----------4 44-------------------------|
A|-----------------------------------------------------------------------------|
E|-----------------------------------------------------------------------------|
Tap to rate this tab
# A B C D E F G H I J K L M N O P Q R S T U V W X Y Z