Song name
# A B C D E F G H I J K L M N O P Q R S T U V W X Y Z

Kottonmouth Kings - Full Throttle tab

Help us improve GuitareTab! Take a short survey!
----------------------------------------------------------------------------
	          Full Throttle - Kottonmouth Kings
----------------------------------------------------------------------------
Tabbed by:matt dale
Email:wrdales@comcast.net

Tuning:standard

   intro, palm mute the whole intro, repeat 12 times
e|-------------------------------------------------------------------------|
B|-------------------------------------------------------------------------|
G|-------------------------------------------------------------------------|
D|--3---3-3-3-3-3-3---3---3------------------------------------------------|
A|--3---3-3-3-3-3-3---3---3------------------------------------------------|
E|--1---1-1-1-1-1-1---1---1------------------------------------------------|

   chorus, repeat 12 times
e|-------------------------------------------------------------------------|
B|-------------------------------------------------------------------------|
G|---------4x--6x----------4x--7x------------------------------------------|
D|--3x-3---4x--6x---3x-3---4x--7x------------------------------------------|
A|--3x-3---2x--4x---3x-3---2x--5x------------------------------------------|
E|--1x-1------------1x-1---------------------------------------------------|

   verse, palm mute all of the verse, repeat 12 times
e|-------------------------------------------------------------------------|
B|-------------------------------------------------------------------------|
G|-------------------------------------------------------------------------|
D|--3---3-3-3-3-3-3---2---3------------------------------------------------|
A|--3---3-3-3-3-3-3---2---3------------------------------------------------|
E|--1---1-1-1-1-1-1---0---1------------------------------------------------|

----------------------------------------------------------------------------
song order

intro-12 x's
chorus-12 x's
verse-24 x's
chorus-12 x's
verse-12 x's
chorus-12 x's (after a 20 second guitar pause)
----------------------------------------------------------------------------

| /  slide up
| \  slide down
| h  hammer-on
| p  pull-off
| ~  vibrato
| +  harmonic
| x  Mute note
============================================================================
Related for Full Throttle tab