Song name
# A B C D E F G H I J K L M N O P Q R S T U V W X Y Z

Kottonmouth Kings - Positive Vibes tab

there are four basic chords to this song, G#, C#, & F#

the only things that change are effects and rhythms

for the beginning and the chorus, the chords are:

|-4--4--2--4-|
|-4--6--2--4-|    acoustic
|-5--6--3--5-|
|-6--6--4--6-|
|-6--4--4--6-|
|-4-----4--4-|

towards the end, the guitar distorts and goes to rock

E:----------|
B:----------|    distorted electric
G:----6-----|
D:-6--6--4--|
A:-6--4--4--|
E:-4-----2--|

it's really easy
Tap to rate this tab
 
# A B C D E F G H I J K L M N O P Q R S T U V W X Y Z