Song name
# A B C D E F G H I J K L M N O P Q R S T U V W X Y Z

Koven - More Than You tab

Koven - More Than You

'More Than You' is the first single from new Viper Recordings signing Koven, following 
their debut free EP 'Wake You Up', released in December 2011 and featured on UKF Dubstep.

Artist: http://www.viperrecordings.co.uk/artist/1000056/koven
Track : https://www.youtube.com/watch?v=cngFaHM0u9w

Excellent dubstep, sounds great on guitar.
Feel free to rate and comment. :)


Capo   - 3rd
Tuning - Standard

Intro( x2 ):

|-------------------------------------------------------------------------------------------------|
|-------------------------------------------------------------------------------------------------|
|-------------------------------------------------------------------------------------------------|
|----------------------------------------------2-----0-----0-----0-----2--------------------------|
|----2-----2-----2-----1-----2-----2-----2--0-0-0-2-2-2-2-2-2-2-2-2-0-0-0----2-----2-----2-----1--|
|-0-0-0-0-0-0-0-0-0-2-2-2-3-3-3-3-3-3-3-3-3-------------------------------3-3-3-3-3-3-3-3-3-2-2-2-|

  *melody in 2nd repeat
|---------10-8-10-8---------------10-8-10-8---------------10-8-10-8-------------------------------|
|-------------------8----8-10---------------8-----------------------8----8-10---------------------|
|------------------------------------------------7-7----------------------------------------------|
|-------------------------------------------------------------------------------------------------|
|-------------------------------------------------------------------------------------------------|
|-------------------------------------------------------------------------------------------------|


Verse( x2 ):

|-------------------------------------------------------------------------------------------------|
|-------------------------------------------------------------------------------------------------|
|-------------------------------------------------------------------------------------------------|
|----------------------------------------------2-----0-----0-----0-----2--------------------------|
|----2-----2-----2-----1-----2-----2-----2--0-0-0-2-2-2-2-2-2-2-2-2-0-0-0----2-----2-----2-----1--|
|-0-0-0-0-0-0-0-0-0-2-2-2-3-3-3-3-3-3-3-3-3-------------------------------3-3-3-3-3-3-3-3-3-2-2-2-|


Chorus - intrumental(strum, x6, last repeat ends at last G chord):

  Em                F#    G                 A     Bm                A     G              
   F#
|-0-----------------2-----3-----------------0-----2-----------------0-----3-----------------2-----|
|-0-----------------2-----3-----------------2-----3-----------------2-----3-----------------2-----|
|-0-----------------3-----0-----------------2-----4-----------------2-----0-----------------3-----|
|-2-----------------4-----0-----------------2-----4-----------------2-----0-----------------4-----|
|-2-----------------4-----2-----------------0-----2-----------------0-----2-----------------4-----|
|-0-----------------2-----3-----------------------------------------------3-----------------2-----|

  *melody in 5th and 6th repeat
|---------10-8--------------------10-8--------------------10-8------------------------------------|
|-----------------8----8-10---------------8-----------------------8----8-10-----------------------|
|-----------------------------------------------7-7-----------------------------------------------|
|-------------------------------------------------------------------------------------------------|
|-------------------------------------------------------------------------------------------------|
|-------------------------------------------------------------------------------------------------|


Verse( x2 )

Pause

Chorus - instrumental(x4, last repeat ends at last G chord)


Outro( x2 )

|---------10-8-10-8---------------10-8-10-8---------------10-8-10-8-------------------------------|
|-------------------8----8-10---------------8-----------------------8----8-10---------------------|
|------------------------------------------------7-7----------------------------------------------|
|-------------------------------------------------------------------------------------------------|
|-------------------------------------------------------------------------------------------------|
|-------------------------------------------------------------------------------------------------|

Lyric:

Now I'm breathing more than air in this fire I've found.
The hidden cloud.
On the head of someone true.
And now I see, he's more than you.

More than you...

Now I'm breathing more than air in this fire I've found.
The hidden cloud.
On the head of someone true.
And now I see, he's more than you.

He's more than you.
More than you...
Tap to rate this tab
# A B C D E F G H I J K L M N O P Q R S T U V W X Y Z