Song name
# A B C D E F G H I J K L M N O P Q R S T U V W X Y Z

Kovenant - New World Order tab

THE KOVENANT OR THE COVENANT 
NEW WORLD ORDER
So this is my first tab.
i dont know if it is Right but it sounds pretty 
Good.
If you want to know anything about the tab 
 here is my e-mail:phillip55@web.de
23/9/07
Standard Tuning:

Riff 1:x4                        
 e|--------------------------------| 
 b|--------------------------------|
 G|--------------------------------| 
 D|--------------------------------|
 A|-2-2-2-2-22222---2-2-2-2-22223--|
 E|-0-0-0-0-00000---0-0-0-0-00001--|
You just have to figure out the rhytm!



Riff 2: x 1
e|----------------------------|
B|----------------------------|
G|----------------------------|
D|--23232322------------------|
A|--23232322------------------|
E|----------------------------|
     . .   .   ....   . . . .

Riff 3: x4 i think this isnt so wrong but i am not pretty sure about this!
                    
e|----------------------------| 
b|----------------------------|
G|------3^--------------------| 
D|-2222--------55-33----------|
A|-2222---x3---33 11-x1-------| 
E|----------------------------|
^:Bending
  
Riff 4: x                                                                                    
e|-----------------------------|
B|-----------------------------|
G|-----------------------------|
D|-2-5-7-----222-----77--------|
A|-2-5-5-x4--222--55-55-x4-----|
E|-0-3-5-----000--33-55--------|
   (female 
    voice 
    with
    lex)  

Riff 1: x 4
Riff 3: x 4
Riff 4: x 1

Riff 5 :x4
                                                            
e|--------------------------------------|
B|--------------------------------------|
G|------------------------------------11|
D|----------------876-------------------|
A|-7-10-9-7-9-7-9-----7-10-9-7-9-7-9----|
E|--------------------------------------|

Riff6:x8


                                                            
e|--------------------------------------|
B|--------------------------------------|
G|--------------------------------------|
D|-----9--------------------------------|
A|-7777-777-10-9-8----------------------|
E|--------------------------------------|

Solo:
Later

Solo Rhytm is Riff 5

Riff4:1

Riff:2

END

 

Tap to rate this tab
# A B C D E F G H I J K L M N O P Q R S T U V W X Y Z