Song name
# A B C D E F G H I J K L M N O P Q R S T U V W X Y Z

Kovenant - The Human Abstract tab

-------------------------------------------------------------------------------
			The Human Abstract- The Kovenant
-------------------------------------------------------------------------------
Tabbed by:Derz
Email:phillip55@web.de
I am 80% sure that itīs right!

Tuning:Standard
                    (........fast picking.......)      (..Fast picking..)
e|------------------8h7h5-8h7h5-8h7h5----------------------------------------|
B|-12-11-12--------------------------8h7h5-8h7h5--5-7-8-8h7h5-8h7h5-8h7h5----|
G|---------12-11-12----------------------------------------------------------|
D|---------------------------------------------------------------------------|
A|---------------------------------------------------------------------------|
E|---------------------------------------------------------------------------|
 (..Fast picking..)                                  (...Fast picking.......)
e|8h7h5-8h7h5-8h7h5----------------------------------------------------------|
B|-----------------5-5-7-8-10-8-7-5-4-5-7-8-----5-7-8-8h7h5-8h7h5-8h7h5-8h7h5|
G|-----------------------------------------5-7-9-----------------------------|
D|---------------------------------------------------------------------------|
A|---------------------------------------------------------------------------|
E|---------------------------------------------------------------------------|
  (.....extremly fast picking......)
e|---------------------------------------------------------------------------|
B|-10h8h7-10h8h7-10h8---------------5-7-8-10-12^-12^-------------------------|
G|-------------------8h7h5-8h7h5-8h7-----------------------------------------|
D|---------------------------------------------------------------------------|
A|---------------------------------------------------------------------------|
E|---------------------------------------------------------------------------|

End!
Tap to rate this tab
# A B C D E F G H I J K L M N O P Q R S T U V W X Y Z