Song name
# A B C D E F G H I J K L M N O P Q R S T U V W X Y Z

Kovenant - Sindrom tab

-------------------------------------------------------------------------------
			     Sindrom - The Kovenant
-------------------------------------------------------------------------------
Tabbed by:Derz
Email:phillip55@web.de
So This is a very hard solo i think.
and i am not sure about the last part.
So have FUN!

Tuning: Standard
                               (..............Fast Picking.............)
e|-----------------------------------------------------------------------^18-|
B|-11-11-10-10-8-8--------------------------------------8h10h11-8h10h11------|
G|----------------8-8-7-7-3-3-2------------7h8h10-7h8h10---------------------|
D|------------------------------5h7h8-5h7h8----------------------------------|
A|---------------------------------------------------------------------------|
E|---------------------------------------------------------------------------|
  (..............fast picking...............)
e|---------------------------------------------------------------------------|
B|-8h10h11-8h10h11-8h10h11-8h10h11-------------------------------------------|
G|--------------------------------5h7h8-5h7h8-^7-8-8-7-7-5-5-3-3-2-2-00-2----|
D|---------------------------------------------------------------------------|
A|---------------------------------------------------------------------------|
E|---------------------------------------------------------------------------|


  
e|---------------------------------------------------------------------------|
B|-8h10h11-8h10h11-6h8h10-6h8h10-4h6h8-4h6h8---------------------------------|
G|------------------------------------------8h7h5----------------------------|
D|-----------------------------------------------8h7h5-8h7h5-----------------|
A|----------------------------------------------------------10h8h6-10--------|
E|---------------------------------------------------------------------------|

                   (........Extremly fast Picking........)
e|---------------------------------------------------------------------------|
B|-----------------------------8h10h11-8h10h11-------------------------------|
G|-7-8-7-5-7-3-2-7--5h7h8-5h7h8---------------8h7h5--------------------------|
D|-------------------------------------------------8h7h5---------------------|
A|------------------------------------------------------10-------------------|
E|---------------------------------------------------------------------------|

END!

Tap to rate this tab
# A B C D E F G H I J K L M N O P Q R S T U V W X Y Z