Song name
# A B C D E F G H I J K L M N O P Q R S T U V W X Y Z

Kovenant - Stillborn Universe tab

Help us improve GuitareTab! Take a short survey!
Band: The Kovenant
Song: Stillborn Universe
Standard Tuning


Guitars come in about 1:22
------------------------------------------|
------------------------------------------|
------------------------------------------|
------------------------------------------|
-1010101010--3-3-3-3-6-6-6-6-6-5-5-5-5----|
-8-8-8-8-8---1-1-1-1-4-4-4-4-4-3-3-3-3----|


-------------------------------------------------|
-------------------------------------------------|
-------------------------------------------------|
-------------------------------8-8-8-8-----------|
-10-10-10-10-3-3-3-3-6-6-6-6-6-6-6-6-6-8-8-8-8---|
-8--8--8--8--1-1-1-1-4-4-4-4-4---------6-6-6-6---|x2


gtr1
--------|
--------|
---5----|
---5----|
---3----|
--------|let it ring

gtr2
-----------------------------|
-6-8---6-8---6-8---6-9-8-----|
-----------------------------|
-----------------------------|
-----------------------------|
-----------------------------|


-------------------|
-------------------|
-------------------|
-------------------|
-x-x-10-5-5-5-5----|
-x-x-8--3-3-3-3----|X16


------------------------------------------|
------------------------------------------|
------------------------------------------|
------------------------------------------|
-1010101010--3-3-3-3-6-6-6-6-6-5-5-5-5----|
-8-8-8-8-8---1-1-1-1-4-4-4-4-4-3-3-3-3----|


-------------------------------------------------|
-------------------------------------------------|
-------------------------------------------------|
-------------------------------8-8-8-8-----------|
-10-10-10-10-3-3-3-3-6-6-6-6-6-6-6-6-6-8-8-8-8---|
-8--8--8--8--1-1-1-1-4-4-4-4-4---------6-6-6-6---|x2

gtr1
--------|
--------|
---5----|
---5----|
---3----|
--------|let it ring

at about 4:14
-------------------|
-------------------|
-------------------|
-5-5-5-5-5-5-5-----|
-3-3-3-3-3-3-3-----|
-x-x-x-x-x-x-x-----|


------------------------------------------|
------------------------------------------|
------------------------------------------|
------------------------------------------|
-1010101010--3-3-3-3-6-6-6-6-6-5-5-5-5----|
-8-8-8-8-8---1-1-1-1-4-4-4-4-4-3-3-3-3----|


-------------------------------------------------|
-------------------------------------------------|
-------------------------------------------------|
-------------------------------8-8-8-8-----------|
-10-10-10-10-3-3-3-3-6-6-6-6-6-6-6-6-6-8-8-8-8---|
-8--8--8--8--1-1-1-1-4-4-4-4-4---------6-6-6-6---| X4

gtr1
--------|
--------|
---5----|
---5----|
---3----|
--------|let it ring

gtr2
-----------------------------|
-6-8---6-8---6-8---6-9-8-----|
-----------------------------|
-----------------------------|
-----------------------------|
-----------------------------|


!!!!!!!!!!!!!!!!!!!!!!!!!!!!!!!!!!!!End!!!!!!!!!!!!!!!!!!!!!!!!!!!!!!!!!!!!!
Related for Stillborn Universe tab