Song name
# A B C D E F G H I J K L M N O P Q R S T U V W X Y Z

Kraftklub - Ich Will Nicht Nach Berlin tab

Intro:

Guitar 1:
E|-------12------12---12-|-----12----12--12-|
B|-10-10---10-10---10----|-9-9---9-9---9----|
G|-----------------------|------------------|
D|-----------------------|------------------|
A|-----------------------|------------------|
E|-----------------------|------------------|

E|------------------|---------12--11--10-|
B|------------------|--------------------|
G|-----10----10--10-|-----10-------------|
D|-9-9---9-9---9----|-9-9---9------------|
A|------------------|--------------------|
E|------------------|--------------------|

Guitar 2:

            F#m                            E  
E|--9--9--9--9--9--9--9--9--|--7--7--7--7--7--7--7--7--|
B|--10-10-10-10-10-10-10-10-|--9--9--9--9--9--9--9--9--|
G|--11-11-11-11-11-11-11-11-|--9--9--9--9--9--9--9--9--|
D|--11-11-11-11-11-11-11-11-|--9--9--9--9--9--9--9--9--|
A|--9--9--9--9--9--9--9--9--|--7--7--7--7--7--7--7--7--|
E|--------------------------|--------------------------|
                         
                          Bm
E|--7--7--7--7--7--7--7--7--|--7--7--7--7--7--7--7--7--|
B|--7--7--7--7--7--7--7--7--|--7--7--7--7--7--7--7--7--|
G|--7--7--7--7--7--7--7--7--|--7--7--7--7--7--7--7--7--|
D|--9--9--9--9--9--9--9--9--|--9--9--9--9--9--9--9--9--|
A|--9--9--9--9--9--9--9--9--|--9--9--9--9--9--9--9--9--|
E|--7--7--7--7--7--7--7--7--|--7--7--7--7--7--7--7--7--|

Refrain:

     B5       D5      E5
E|-----------------|--------------------|
B|-----------------|--------------------|
G|---------7--7--7-|-9--9--9/10--9-7--9-|
D|-9--9--9-7--7--7-|-9--9---------------|
A|-9--9--9-5--5--5-|-7--7---------------|
E|-7--7--7---------|--------------------|
     B5       D5      E5
E|-----------------|--------------------|
B|-----------------|--------------------|
G|---------7--7--7-|-9--9/10--9--7------|
D|-9--9--9-7--7--7-|-9-------------9--7-|
A|-9--9--9-5--5--5-|-7------------------|
E|-7--7--7---------|--------------------|

Verse:

            Bm
E|-----7-------7------7------------|
B|-----7-------7------7------------|
G|-----7-------7------7------------|
D|---------------------------------|
A|------------------------5--------|
E|-7------7------7------7----7---5-|
Tap to rate this tab
# A B C D E F G H I J K L M N O P Q R S T U V W X Y Z