Song name
# A B C D E F G H I J K L M N O P Q R S T U V W X Y Z

Kraftklub - Songs Fuer Liam tab

----------------------------------------------------------------
                  Kraftklub - Songs für Liam
----------------------------------------------------------------
Tabbed by: Uniraf
Email:Uniraf@gmail.com

riff1

e---------------------------------------------------------------|
h---------------------------------------------------------------|
G---------------------------------------------------------------|
D-----7--------------7--------------7--------------7------------|
A-------7-5-7----------7--4-5---------7-5-7----------7--5-4-----|
E-5------------5-5--------------5------------5-5----------------|

e---------------------------------------------------------------|
h---------------------------------------------------------------|
G---------------------------------------------------------------|
D-----7--------------7--------------7--------------7------------|
A-------7-5-7----------7--4-5---------7-5-7----------7--5-5-5---|
E-5------------5-5--------------5------------5-5----------------|

riff2

e--------------------------------------10-10-8-8-8--------------|
h---------------------8-8-8-8-10-10-10--------------------------|
G-7-7-7-7-10-10-10-10-------------------------------------------|
D---------------------------------------------------------------|
A---------------------------------------------------------------|
E---------------------------------------------------------------|

e---------------------------------------------------------------|
h--10-10-10-8-8-8-----------------------------------------------|
G-----------------10-10-10-7-5----------------------------------|
D---------------------------------------------------------------|
A---------------------------------------------------------------|
E---------------------------------------------------------------|

Intro: riff 1

A (riff1)
ich weiger mich das hinzunehm, alle stehn nur da.
Dabei passier'n so viele schlimme Dinge jeden Tag
Unzumutbarkeiten wie die neuen Folgen Scrubs,
generell Mario Barth, doch die Leute wollen das.
D (riff2)
Mittlerweile kommt zum dritten Mal das selbe Lied.
Das ist keine Musik, dass sind die Black Eyed Peas.
A (riff1)
Wir müssen rausgehen, hier darf man nicht mehr rauchen an der Bar.
Die Welt geht vor die Hunde, Mädchen, traurig aber wahr

              A              C                     G
Wenn du mich küsst schreibt Noel wieder Songs für Liam!
              D
Wenn du mich küsst!
              A                    C                    G
Wenn du mich küsst kommen unsere Freunde zurück aus Berlin!
              D
Wenn du mich küsst!
                   A                  C                           G
Und wenn du mich küsst, dann ist die Welt ein bisschen weniger scheiße!
              D
Wenn du mich küsst!
              A                C                   G
Wenn du mich küsst bleibst du hier oder gehen wir beide!
              D
Wenn du mich küsst!

A (riff1)
Hättest du mich mal ein bisschen früher geküsst,
dann wäre AIDS jetzt besiegt und die 90tees nicht zurück.
Uns beide hätte man nicht in der S-Bahn kontrolliert
und Josh Homme hätte nie die Arctic Monkeys produziert.
D (riff2)
Vieles wäre nie passiert, Dinge, die vermeidbar sind.
Dann gäb es keinen einzigen romantischen Till Schweiger Film.
A (riff1)
Daran kann man nichts ändern, dass war alles gestern,
aber du hast jetzt die Chance unsere Zukunft zu verbessern.

              A              C                     G
Wenn du mich küsst schreibt Noel wieder Songs für Liam!
              D
Wenn du mich küsst!
              A                    C                    G
Wenn du mich küsst kommen unsere Freunde zurück aus Berlin!
              D
Wenn du mich küsst!
                   A                  C                           G
Und wenn du mich küsst, dann ist die Welt ein bisschen weniger scheiße!
              D
Wenn du mich küsst!
              A                C                   G
Wenn du mich küsst bleibst du hier oder gehen wir beide!
              D
Wenn du mich küsst!

A
Wenn du mich küsst...
Wenn du mich küsst...
Wenn du mich küsst...
Wenn du mich küsst...
             C
Wenn du mich küsst...
             G
Wenn du mich küsst...
             D
Wenn du mich küsst...
             A
Wenn du mich küsst...
             C
Wenn du mich küsst...
             G
Wenn du mich küsst...
             D
Wenn du mich küsst...

              A              C                     G
Wenn du mich küsst schreibt Noel wieder Songs für Liam!
              D
Wenn du mich küsst!
              A                    C                    G
Wenn du mich küsst kommen unsere Freunde zurück aus Berlin!
              D
Wenn du mich küsst!
                   A                  C                           G
Und wenn du mich küsst, dann ist die Welt ein bisschen weniger scheiße!
              D
Wenn du mich küsst!
              A                C                   G
Wenn du mich küsst bleibst du hier oder gehen wir beide!
              D
Wenn du mich küsst!

              A
Wenn du mich küsst!
              C
Wenn du mich küsst!
              G
Wenn du mich küsst!
              D
Wenn du mich küsst!
              A
Wenn du mich küsst!
              C
Wenn du mich küsst!
              G
Wenn du mich küsst!
              D
Wenn du mich küsst!
              A
Wenn du mich küsst!
              C
Wenn du mich küsst!
              G
Wenn du mich küsst!
              D
Wenn du mich küsst!
              A
Wenn du mich küsst!
              C
Wenn du mich küsst!
              G      D (stop)
Wenn du mich küsst!

Wenn du mich küsst!
Tap to rate this tab
# A B C D E F G H I J K L M N O P Q R S T U V W X Y Z