Song name
# A B C D E F G H I J K L M N O P Q R S T U V W X Y Z

Kraftklub - Scheissindiedisko tab

Hallo zusammen,

hab mich grad mal 5 minuten hingesetzt und die Tabs rausgehört. 
Bitte den Rhytmus selber raushören. Ist immer leichter als den hier mühevoll und 
nur halbverständlich nieder zu schreiben ...


Intro:
E--------------------------------| x4
B--------------------------------|
G----------------------8---------|
D--10--10--10-10-10-10-8---------|
A--10--10--10-10-10-10-6---------|
E--8---8---8--8--8--8------------|


Verse: (palm mute)
E-----------------------------------| x4
B-----------------------------------|
G-----------------------------------|
D-----------------------------------|
A----------6---6-8---6-8-10-8-6-----|
E--8-8-6-8---8------------------8-6-|


Chorus:
E---------------------------------------------| x4
B---------------------------------------------|
G---------------8-8-8-8-----------10-10-10-10-|
D--10-10-10-10--8-8-8-8--5-5-5-5--10-10-10-10-|
A--10-10-10-10--6-6-6-6--5-5-5-5--8--8--8--8--|
E--8--8--8--8------------3-3-3-3--------------|


Bridge:
Chorus im palm mute
Tap to rate this tab
 
# A B C D E F G H I J K L M N O P Q R S T U V W X Y Z