Song name
# A B C D E F G H I J K L M N O P Q R S T U V W X Y Z

Kraftklub - Lieblingsband Oh Yeah tab

E|----------------|----------------|----------------|----------------|
B|----------------|----------------|----------------|----------------|
G|----------------|----------------|----------------|----------------|
D|-------8--6-----|----------------|6--8--6---------|----------------|
A|-------------8--|-9-8---6---8----|--------8--9-8--|-6--8-----------|
E|-6-6------------|----------------|----------------|--------9-------|

E||----------------|----------------|----------------|----------------||
B||----------------|----------------|----------------|----------------||
G||----------------|----------------|----------------|----------------||    x4
D||--8--6----------|-------------6--|--8--6----------|----------------||
A||------------8---|-9--8--6--8-----|--------8--9--8-|-6--8-----------||
E||----------------|----------------|----------------|---------9------||


E|----------------|----------------|----------------|----------------|
B|----------------|----------------|----------------|----------------|
G|----------------|----------------|----------------|----------------|
D|--8--6----------|-------------6--|--8--6----------|----------------|
A|------------8---|-9--8--6--8-----|--------8--9--8-|-6--8-----------|
E|----------------|----------------|----------------|----------------|
Tap to rate this tab
 
# A B C D E F G H I J K L M N O P Q R S T U V W X Y Z