Song name
# A B C D E F G H I J K L M N O P Q R S T U V W X Y Z

Kraftklub - Ich Will Nicht Nach Berlin tab

INTRO und SOLO in Original-Lage


Intro:

Teil 1
E|-----------------------|------------------------|
B|-----9----9---9--------|-----9----9---9---------|
G|--77---77---7----------|--99---99---9-----------|
D|-----------------------|------------------------|
A|-----------------------|------------------------|
E|-----------------------|------------------------|

E|-----------------------|------------------------|
B|-----6----6----6-------|----6------12--9--6-----|
G|--44---44---44---------|--4---4-----------------|
D|-----------------------|------------------------|
A|-----------------------|------------------------|
E|-----------------------|------------------------|

Teil2                     ist hier anders!
E|-----------------------|------------------------|
B|-----------------------|------------------------|
G|-----9----9---9--------|-----9----9---9---------|
D|--77---77---7----------|--66---66---6-----------|
A|-----------------------|------------------------|
E|-----------------------|------------------------|

E|-----------------------|------------------------|
B|-----------------------|------------------------|
G|-----6----6----6-------|----6------12--9--6-----|
D|--44---44---44---------|--4---4-----------------|
A|-----------------------|------------------------|
E|-----------------------|------------------------|

Teil3
E|-----------------------|------------------------|
B|-----------------------|------------------------|
G|-----9----9---9--------|-----9----9---9---------|
D|--77---77---7----------|--99---99---9-----------|
A|-----------------------|------------------------|
E|-----------------------|------------------------|

E|-----------------------|------------------------|
B|-----------------------|------------------------|
G|-----6----6---6--------|-----6------6-----------|
D|--44---44---44---------|--4------4--------------|
A|-----------------------|------------------------|
E|-----------------------|------------------------|
Tap to rate this tab
# A B C D E F G H I J K L M N O P Q R S T U V W X Y Z