Kraftwerk - The Model tab

This is a solo Guitar version for The Model
There may be some mistakes but I think it should do it for the moment
Remember B=H bB=B

Intro (played 4 times):
e|-----------------|-----------------|
h|-----------------|-----------------|
g|-2-----2-5-2-5-2-|-----------------|
D|-----------------|-2-----2-5-2-5---|
A|-0-----0-3-0-3-0-|-----------------|
E|-----------------|-0-----0-3-0-3---|
   1 + 2 + 3 + 4 +   1 + 2 + 3 + 4 +

part one (played 8 times:
e|-5---------8-7-5-|-7-----3-0-----0-|
h|-----------------|-----------------|
g|-----------------|-----------------|
D|-----------------|-----------------|
A|-0-----0-3-0-----|-----------------|
E|----------(5)8-5-|-0-----0-3-0-3---|
   1 + 2 + 3 + 4 +   1 + 2 + 3 + 4 +

Part two (played one time):
e|-8---------------|-7---------------|-3---------------|-----------------|
h|-----------------|-----------------|-----------------|-----------------|
g|-5---------------|-4---------------|-0---------------|-----------------|
D|-----5-------5---|-----4-------4-7-|-----0-------0---|-----0-------0---|
A|-----------------|-----------------|-----------------|-----------------|
E|-8-----8---8-----|-7-----7---7---5-|-3-----3---3-----|-3-----3---3-----|
   1 + 2 + 3 + 4 +   1 + 2 + 3 + 4 +   1 + 2 + 3 + 4 +   1 + 2 + 3 + 4 +

e|-8---------------|-7---------------|-12--------------|---------7-------|
h|-----------------|-----------------|-----------------|-------10--------|
g|-5---------------|-4---------------|-----------------|-9-----------9---|
D|-----5-------5---|-----4-------4-7-|-----14------14--|-----9-----------|
A|-----------------|-----------------|-----------------|-7-----7---7-----|
E|-8-----8---8-----|-7-----7---7---5-|-12----12--12----|-----------------|
   1 + 2 + 3 + 4 +   1 + 2 + 3 + 4 +   1 + 2 + 3 + 4 +   1 + 2 + 3 + 4 +


Riff one 4 times

Than take it one octave higher (4 times):
e|-17----------20-19-17-|-19----15-12-------12-|
h|----------------------|----------------------|
g|----------------------|----------------------|
D|----------------------|(14)------------------|
A|----------------------|----------------------|
E|-17----17-20-17-20-17-|-12----12-15-12-15----|
   1 + 2 +  3  +  4  +    1 + 2 +  3  +  4  +


Part two an octave higher:
e|-20--------------|-19--------------|-15--------------|-----------------|
h|-----------------|-----------------|-----------------|-----------------|
g|-17--------------|-16--------------|-----------------|-----------------|
D|-----17------17--|-----16------1619|-17--------------|-----------------|
A|-----------------|-----------------|-----17------17--|-----17------17--|
E|-20----20--20----|-19----19--19--17|-15----15--15----|-15----15--15----|
   1 + 2 + 3 + 4 +   1 + 2 + 3 + 4 +   1 + 2 + 3 + 4 +   1 + 2 + 3 + 4 +

e|-20--------------|-19--------------|-24--------------|---------19------|
h|-----------------|-----------------|-----------------|-------22--------|
g|-17--------------|-16--------------|-----21------21--|-21----------21--|
D|-----17------17--|-----16------1619|-----------------|-----21----------|
A|-----------------|-----------------|-----------------|-19----19--19----|
E|-20----20--20----|-19----19--19--17|-24----24--24----|-----------------|
   1 + 2 + 3 + 4 +   1 + 2 + 3 + 4 +   1 + 2 + 3 + 4 +   1 + 2 + 3 + 4 +

Part three (8 times):              ^do not play this note last time
e|-0-------0---0-1-|-0-------0-------|
h|---1---1---1-----|---0---0-------3-|
g|-----2-----------|-----0-----------|
D|-----------------|-----------------|
A|-0-----0-3-0-3-0-|-----------------|
E|-----------------|-0-----0-3-0-3---|
   1 + 2 + 3 + 4 +   1 + 2 + 3 + 4 +  

you can also play it in higher octave:
e|-12-------12----12-13-|-12-------12-------|
h|---13--13----12-------|---12--12-------15-|
g|-----14---------------|-----12------------|
D|----------------------|-------------------|
A|-12----12-15-12-15-12-|-------------------|
E|----------------------|-12----12-15-12-15-|
   1 + 2 +  3  +  4  +    1 + 2 +  3  +  4  +

Play part two \
               => original in higher octave
Play part one /

play brigde

Coda:                                 |>>>>>> play this two times          
e|-----------------|-0---------------|-8---------------|-------------------|
h|-----------------|-----------------|-----------------|-15----------------|
g|-2-----2-5-2-5-2-|-----------------|---------5---5---|----------12----12-|
D|-----------------|-2-----2-5-2-5---|-7-----7---7---7-|-14----14----14----|
A|-0-----0-3-0-3-0-|-----------------|-----------------|-------------------|
E|-----------------|-0-----0-3-0-3---|-5-----5-8-5-8-5-|-12----12-15-12-15-|
   1 + 2 + 3 + 4 +   1 + 2 + 3 + 4 +   1 + 2 + 3 + 4 +   1 + 2 +  3  +  4 + 

End Accord (with as many A and C as you can play !)
e|-5-
h|--- 
g|-5-
D|-7-
A|-3-
E|-0-

(or 8075x5 // 8x7x108 // 53x5x5 something like this)

this is it... sounds right to me
Tap to rate this tab
 
# A B C D E F G H I J K L M N O P Q R S T U V W X Y Z