Song name
# A B C D E F G H I J K L M N O P Q R S T U V W X Y Z

Kraftwerk - Das Model chords

Highlighted       Show chord diagrams
DAS MODEL
=========
[Album: Die Mensch-Maschine (1978)]
  Am  Em   C   Hm  G   E
E:-0-|-0-|-0-|-2-|-3-|-0-|
H:-1-|-0-|-1-|-3-|-0-|-0-|
G:-2-|-0-|-0-|-4-|-0-|-1-|
D:-2-|-2-|-2-|-4-|-0-|-2-|
A:-0-|-2-|-3-|-2-|-2-|-2-|
E:---|-0-|---|---|-3-|-0-|

Bass-Lauf:
  Am              Em
G:--------------|--------------|
D:--------------|--------------|
A:-0--0-3-0-3-0-|--------------|
E:--------------|-0--0-3-0-3-0-|
Fill 1:  
  Am              Em
E:---5--5-5--8-7-|-5-7--3----|
H:-5-------------|---------5-|
G:---------------|-----------|
D:---------------|-----------|
A:---------------|-----------|
E:---------------|-----------|


Am Em  Am Em  Am Em  Am Em

    Am                    Em             (Fill 1)
Sie ist ein Model und sie sieht gut aus.
    Am                         Em             (Fill 1)
Ich nähm sie heut gerne mit zu mir nach Haus.
    Am                         Em           (Fill 1)
Sie wirkt so kühl an sie kommt niemand ran.
     Am                           Em            (Fill 1)
Doch vor der Kamera, da zeigt sie was sie kann.

C Hm G   C Hm G E

    Am                         Em              (Fill 1)
Sie trinkt in Nachtclubs immer Sekt - korrekt.
    Am                   Em         (Fill 1)
Und hat hier alle Männer abgecheckt. 
   Am                           Em              (Fill 1)
Im Scheinwerferlicht ihr junges Lächeln strahlt.
    Am                           Em          (Fill 1)
Sie sieht gut aus und Schönheit wird bezahlt.

C Hm G   C Hm G E   

Am Em  Am Em  Am Em  Am Em  Am Em  Am Em  Am Em  Am Em   

C Hm G   C Hm G E

    Am                            Em             (Fill 1)
Sie stellt sich zur Schau für das Konsumprodukt.
    Am                       Em        (Fill 1)
Und wird von Millionen Augen angeguckt.
    Am                          Em        (Fill 1)
Ihr neues Titelbild ist einfach fabelhaft.
    Am                                  Em               (Fill 1)
Ich muss sie wiedersehen, ich glaub sie hat's geschafft.

Am Em  Am Em  Am Em  Am Em  

Am Em  Am Em  Am Em  Am Em 
Tap to rate this tab
# A B C D E F G H I J K L M N O P Q R S T U V W X Y Z