Song name
# A B C D E F G H I J K L M N O P Q R S T U V W X Y Z

Kraftwerk - Radio-activity tab

Help us improve GuitareTab! Take a short survey!
-------------------------------------------------------------------------------
			Kraftwerk - Radio-activity
-------------------------------------------------------------------------------

Guitar 1 (or bass)
e|---------------------------------------------------------------------------|
B|---------------------------------------------------------------------------|
G|---------------------------------------------------------------------------|
D|---------------------------------------------------------------------------|
A|---------------------------------------------------------------------------|
E|-3-3-3-3-3-3-3-3-3-3-3-3-3-3-3--1-1-1-1-1-1-1-1-1-1-1---5-5-5-5-5-5-5-5-5--|
Palm Mute everything ,through the whole song.
listen to the song for the right number of string hits

Guitar 2

Morse code (play on e : 19):
.-. .- -.. .. --- .- -.-. - .. ...- .. - -..--

e|-----------------------------------------------------------------19----------|
B|-----------------------------------------------------------------------------|
G|-----------------------------------------------------------------------------|
D|-----------------------------------------------------------------------------|
A|-----------------------------------------------------------------------------|
E|-----------------------------------------------------------------------------|

The Melody

e|----------17--17------17------17---19---17--15--|
B|-----17-----------17------17--------------------|
G|------------------------------------------------|
D|------------------------------------------------|
A|------------------------------------------------|
E|------------------------------------------------|


e|------------------------------------------------|
B|----------17--17------17------17---19---17--15--|
G|-----17-----------17------17--------------------|
D|------------------------------------------------|
A|------------------------------------------------|
E|------------------------------------------------|

Second morse code
... --- ... --- ... --- ... --- ... --- ... --- ... --- ... --- ... ---
e|-----------------------------------------------------------------19----------|
B|-----------------------------------------------------------------------------|
G|-----------------------------------------------------------------------------|
D|-----------------------------------------------------------------------------|
A|-----------------------------------------------------------------------------|
E|-----------------------------------------------------------------------------|
Related for Radio-activity tab