Song name
# A B C D E F G H I J K L M N O P Q R S T U V W X Y Z

Kraftwerk - Computer Love tab

Coldplay used this tune for there song Talk...
But it's original to Kraftwerk's ComputerLove from the cd Computerworld..

e------15-13--------------------------------|
B---11-------15-13--11/13-15----------------|
G----------------------------12-------------|
D-------------------------------------------|
A-------------------------------------------|
E-------------------------------------------|



e------15-13-------------------------------------------------|
B---11-------15-13--11/13-15----15-------15-15-15-15-13------|
G----------------------------12----12-------------------14---|
D----------------------------------------------------------15|
A------------------------------------------------------------|
E------------------------------------------------------------|
Tap to rate this tab
# A B C D E F G H I J K L M N O P Q R S T U V W X Y Z