Guitaretab - guitar tabs
Song name
# A B C D E F G H I J K L M N O P Q R S T U V W X Y Z

Kraken - Silencioso Amor tab

--|-Am----------|-Am/6--------|-Am/6maj-----|-Am/7--------|
E-|-------0-----|-------0-----|-------0-----|-------0-----|
B-|-----1---1---|-----1---1---|-----1---1---|-----1---1---|
G-|---2-------2-|---2-------2-|---2-------2-|---2-------2-|
D-|-2-----------|-3-----------|-4-----------|-5-----------|
A-|-------------|-------------|-------------|-------------|
E-|-------------|-------------|-------------|-------------|

--|-Dm----------|-Dm/2maj-----|--Dm---------|--Dm---------|
E-|-------1-----|-------0-----|-------1-----|-------1-----|
B-|-----3---3---|-----3---3---|-----3---3---|-----3---3---|
G-|---2-------2-|---2-------2-|---2-------2-|---2-------2-|
D-|-3-----------|-3-----------|-3-----------|-3-----------|
A-|-------------|-------------|-------------|-------------|
E-|-------------|-------------|-------------|-------------|

--|-G---------------|-G-----------|-G----------|-G-----------|
E-|-----------3-----|-------3-----|------3-----|-------3-----|
B-|---------3---3---|-----3---3---|----3---3---|-----3---3---|
G-|-------4-------4-|---4-------4-|---4------4-|---4-------4-|
D-|-3-s-5-----------|-5-----------|-5----------|-5-----------|
A-|-----------------|-------------|------------|-------------|
E-|-----------------|-------------|------------|-------------|

Guitarra 1
--|-Am----------|-Am/6--------|-Am/6maj-----|-Am/7--------|
E-|-------0-----|-------0-----|-------0-----|-------0-----|
B-|-----1---1---|-----1---1---|-----1---1---|-----1---1---|
G-|---2-------2-|---2-------2-|---2-------2-|---2-------2-|
D-|-2-----------|-3-----------|-4-----------|-5-----------|
A-|-------------|-------------|-------------|-------------|
E-|-------------|-------------|-------------|-------------|
		    |			 |		   |		     |
Guitarra 2	    |			 | 		   |		     |
E-|---7-7-7---5-|-------------|-------------|-------------|
B-|---8-8-8-----|-------------|-------------|-------------|
G-|-------------|-------------|-------------|-------------|
D-|-------------|-------------|-------------|-------------|
A-|-------------|-------------|-------------|-------------|
E-|-------------|-------------|-------------|-------------|

También se puede hacer así con un trasportador en el quinto
Traste si quieren bajarlo o subirlo mas para acomodar su voz

--|-Am----------|-Am/6--------|-Am/6maj-----|-Am/7---------|
E-|-------------|-------------|-------------|--------------|
B-|-------5-----|-------5-----|-------5-----|--------5-----|
G-|-----5---5---|-----5---5---|-----5---5---|------5---5---|
D-|---7-------7-|---7-------7-|---7-------7-|----7-------7-|
A-|-7-----------|-8-----------|-9-----------|-10-----------|
E-|-------------|-------------|-------------|--------------|



[ Tab from: http://www.guitaretab.com/k/kraken/88268.html ]
--|-Dm----------|-Dm/2maj-----|--Dm---------|--Dm---------|
E-|-------------|-------------|-------------|-------------|
B-|-------6-----|-------5-----|-------6-----|-------6-----|
G-|-----7---7---|-----7---7---|-----7---7---|-----7---7---|
D-|---7-------7-|---7-------7-|---7-------7-|---7-------7-|
A-|-8-----------|-8-----------|-8-----------|-8-----------|
E-|-------------|-------------|-------------|-------------|

--|-G----------------|-G------------|-G------------|-G------------|
E-|------------------|--------------|--------------|--------------|
B-|------------8-----|--------8-----|--------8-----|--------8-----|
G-|----------7---7---|------7---7---|------7---7---|------7---7---|
D-|--------9-------9-|----9-------9-|----9-------9-|----9-------9-|
A-|-8-s-10-----------|-10-----------|-10-----------|-10-----------|
E-|------------------|--------------|--------------|--------------|

Guitarra 1
--|-Am----------|-Am/6--------|-Am/6maj-----|-Am/7---------|
E-|-------------|-------------|-------------|--------------|
B-|-------5-----|-------5-----|-------5-----|--------5-----|
G-|-----5---5---|-----5---5---|-----5---5---|------5---5---|
D-|---7-------7-|---7-------7-|---7-------7-|----7-------7-|
A-|-7-----------|-8-----------|-9-----------|-10-----------|
E-|-------------|-------------|-------------|--------------|
		    |			 |		   |		     |
Guitarra 2	    |			 | 		   |		     |
E-|---7-7-7---5-|-------------|-------------|-------------|
B-|---8-8-8-----|-------------|-------------|-------------|
G-|-------------|-------------|-------------|-------------|
D-|-------------|-------------|-------------|-------------|
A-|-------------|-------------|-------------|-------------|
E-|-------------|-------------|-------------|-------------|


Elkin Urueña: No sean pichurrias no me roben el crédito
cuando la vayan a tocar.

Aquí comiencen a tocar con el arpegio, las notas van de base

Am/6maj     Am   Am/5maj  Am/6
Me tomas o dejas
   Am/6maj Dm         Dm/2maj  Dm
Me daña tu juego insensible
  Dm        G       G       G
Y ruego que quieras hablar
    G       Am   Am/5maj  Am/6
Mas nada me dices

Am/6maj       Am   Am/5maj  Am/6
Mis manos hoy tiemblan
  Am/6maj  Dm         Dm/2maj  Dm
Y guardo palabras que solo te piden
    Dm           G       G       G
Que cambies la espera
    G       Am   Am/5maj  Am/6  Am/6maj
De amor imposible

CORO

Am  Am/5maj  Am/6     Am/6maj     Dm  Dm/2maj  Dm  Dm
Tu              que encuentras en mi  caaaaaaaalor
G  G  G     G        Am  Am/5maj  Am/6  Am/6maj
Tu      que tomas de mi  lo me....or

Am  Am/5maj  Am/6  Am/6maj     Dm  Dm/2maj  Dm  Dm
Tu              escúchame      por faaaaaaaavor
     G      G   G
Silencioso amor
   G         Am   Am/5maj  Am/6
No rompas mi corazón

Am/6maj      Am   Am/5maj  Am/6
Amor que trasciende
    Am/6maj    Dm          Dm/2maj  Dm
Mil rayos de estrellas por mágicas  sendas
Dm        G       G       G
Amor insensible
   G         Am   Am/5maj  Am/6  Am/maj
Escucha y no mires

CORO

En esta tablatura esta mas o menos el arpegio y les puede
servir como una base muy buena para tocarla toda, hay partes
donde varia pero esta les puede servir.
Related for Silencioso Amor tab
Advertisement will be closed in 10 seconds