Guitaretab - guitar tabs
Song name
# A B C D E F G H I J K L M N O P Q R S T U V W X Y Z
Home / K / Kram / Good Love tab

Kram - Good Love tab

-------------------------------------------------------------------------------
				GOOD LOVE - Kram
-------------------------------------------------------------------------------
Tabbed by: Alex
Album: Mix Tape (2009)
Artist Website: http://www.kram.com.au/

Tuning: Standard
You could drop D and adjust the notes (add 2 to the bottom row) if you want.

Song Order:
Verse  x3
Chorus x1
Break  x4
Intro  x2
Break  x1


== Verse ==

e|---------------------------------------------------------------------------|
B|---------------------------------------------------------------------------|
G|---------------------------------------------------------------------------|
D|-12-12-12-12-12-12-12-12-12------------------------------------------------|  x2
A|-12-12-12-12-12-12-12-12-12------------------------------------------------|
E|-10-10-10-10-10-10-10-10-10------------------------------------------------|

e|---------------------------------------------------------------------------|
B|---------------------------------------------------------------------------|
G|---------------------------------------------------------------------------|
D|-5--5--5--5--5--5--5--5--5-------------------------------------------------|  x1
A|-5--5--5--5--5--5--5--5--5-------------------------------------------------|
E|-3--3--3--3--3--3--3--3--3-------------------------------------------------|

e|---------------------------------------------------------------------------|
B|---------------------------------------------------------------------------|
G|---------------------------------------------------------------------------|
D|-12-12-12-12-12-12-12-12-12------------------------------------------------|  x1
A|-12-12-12-12-12-12-12-12-12------------------------------------------------|
E|-10-10-10-10-10-10-10-10-10------------------------------------------------|

e|---------------------------------------------------------------------------|
B|---------------------------------------------------------------------------|
G|---------------------------------------------------------------------------|
D|-7--7--7--7--7--7--7--7--5-------------------------------------------------|  x1
A|-7--7--7--7--7--7--7--7--5-------------------------------------------------|
E|-5--5--5--5--5--5--5--5--3-------------------------------------------------|
[ Tab from: http://www.guitaretab.com/k/kram/190200.html ]
e|---------------------------------------------------------------------------|
B|---------------------------------------------------------------------------|
G|---------------------------------------------------------------------------|
D|-12-12-12-12-12-12-12-12-12------------------------------------------------|  x1
A|-12-12-12-12-12-12-12-12-12------------------------------------------------|
E|-10-10-10-10-10-10-10-10-10------------------------------------------------|


== Chorus ==

e|---------------------------------------------------------------------------|
B|---------------------------------------------------------------------------|
G|---------------------------------------------------------------------------|
D|-9-12--12---(12)-15--------------------------------------------------------|  x6
A|-9-12--12---(12)-15--------------------------------------------------------|
E|-7-10--10---(10)-13--------------------------------------------------------|

e|---------------------------------------------------------------------------|
B|---------------------------------------------------------------------------|
G|---------------------------------------------------------------------------|
D|-15---12---9-12-15-12------------------------------------------------------|  x1
A|-15---12---7-12-15-12------------------------------------------------------|
E|-13---10---7-10-13-10------------------------------------------------------|


== Break ==

e|---------------------------------------------------------------------------|
B|---------------------------------------------------------------------------|
G|---------------------------------------------------------------------------|
D|---------------------------------------------------------------------------|
A|-12-12-12-12-12-12-12-12-12-12-12-12---------------------------------------|
E|-10-10-10-10-10-10-10-10-10-10-10-10-12-10-12-10---------------------------|

(Skip this on the last repeat)
e|---------------------------------------------------------------------------|
B|---------------------------------------------------------------------------|
G|---------------------------------------------------------------------------|
D|---------------------------------------------------------------------------|
A|--9--9--9--9--9--9--9--9--9--9--9--9--9--7---------------------------------|
E|--7--7--7--7--7--7--7--7--7--7--7--7-------10-7----------------------------|

===============================================================================
Related for Good Love tab