Song name
# A B C D E F G H I J K L M N O P Q R S T U V W X Y Z

Kram - Good Love tab

-------------------------------------------------------------------------------
				GOOD LOVE - Kram
-------------------------------------------------------------------------------
Tabbed by: matigamer
Album: Mix Tape (2009)
Artist Website: http://www.kram.com.au/

Tuning: Standard
Verse  x3
Chorus x1
Break  x4
Intro  x2
Break  x1

Verse

e|---------------------------------------------------------------------------|
B|---------------------------------------------------------------------------|
G|---------------------------------------------------------------------------|
D|-11-11-11-11-11-11-11-11-11------------------------------------------------|  x2
A|-11-11-11-11-11-11-11-11-11------------------------------------------------|
E|-9--9--9--9--9--9--9--9--9-------------------------------------------------|

e|---------------------------------------------------------------------------|
B|---------------------------------------------------------------------------|
G|---------------------------------------------------------------------------|
D|-4--4--4--4--4--4--4--4--4-------------------------------------------------|  x1
A|-4--4--4--4--4--4--4--4--4-------------------------------------------------|
E|-2--2--2--2--2--2--2--2--2-------------------------------------------------|

e|---------------------------------------------------------------------------|
B|---------------------------------------------------------------------------|
G|---------------------------------------------------------------------------|
D|-11-11-11-11-11-11-11-11-11------------------------------------------------|  x1
A|-11-11-11-11-11-11-11-11-11------------------------------------------------|
E|-9--9--9--9--9--9--9--9--9-------------------------------------------------|


e|---------------------------------------------------------------------------|
B|---------------------------------------------------------------------------|
G|---------------------------------------------------------------------------|
D|-6--6--6--6--6--6--6--6--4-------------------------------------------------|  x1
A|-6--6--6--6--6--6--6--6--4-------------------------------------------------|
E|-4--4--4--4--4--4--4--4--2-------------------------------------------------|

e|---------------------------------------------------------------------------|
B|---------------------------------------------------------------------------|
G|---------------------------------------------------------------------------|
D|-11-11-11-11-11-11-11-11-11------------------------------------------------|  x2
A|-11-11-11-11-11-11-11-11-11------------------------------------------------|
E|-9--9--9--9--9--9--9--9--9-------------------------------------------------|



 Chorus

e|---------------------------------------------------------------------------|
B|---------------------------------------------------------------------------|
G|---------------------------------------------------------------------------|
D|-11-11---2---9-------------------------------------------------------------|  x6
A|-11-11---2---9-------------------------------------------------------------|
E|-9--9----0---7-------------------------------------------------------------|

e|---------------------------------------------------------------------------|
B|---------------------------------------------------------------------------|
G|---------------------------------------------------------------------------|
D|-11--9--2--9--11--9--11----------------------------------------------------|  x1
A|-11--9--2--9--11--9--11----------------------------------------------------|
E|-9---7--0--7--9---7--9-----------------------------------------------------|


 Break

e|---------------------------------------------------------------------------|
B|---------------------------------------------------------------------------|
G|---------------------------------------------------------------------------|
D|---------------------------------------------------------------------------|
A|---------------------------------------------------------------------------|
E|-9-9-9-9-9-9-9-9-9-9-9-9-12-9-12-9-----------------------------------------|

(Skip this on the last repeat)
e|-----------------------------------------------------------------------------|
B|-----------------------------------------------------------------------------|
G|-----------------------------------------------------------------------------|
D|-----------------------------------------------------------------------------|
A|--------------------------------------9--7-----------------------------------|
E|--7--7--7--7--7--7--7--7--7--7--7--7-------9-7-------------------------------|

===============================================================================
Tap to rate this tab
 
# A B C D E F G H I J K L M N O P Q R S T U V W X Y Z