Kram - The Best Thing tab

Intro:

E-------------------------------------------------|
B-------------------------------------------------|
G---------7--------10---------12----------7-------|
D-------7---7---10----10----12----12---7----7-----|
A-----5-------8----------10----------5------------|
E-------------------------------------------------|

Ref:


E-------------------------|
B-------------------------|
G-----5->7--7--7--x-------|
D-----5->7--7--7--x-------|
A-----3->5--5--5--x-------|
E-------------------------|

Slide up from C to D ,3 times and than F and G :

E--------------------------|
B--------------------------|
G--------------------------|
D----3--3----5--5----------|
A----3--3----5--5----------|
E----1--1----3--3----------|

Any question:
http://www.facebook.com/people/Clientu-La-Frizerie/1666673893
http://www.youtube.com/user/BiggieSmalls66
Tap to rate this tab
 
# A B C D E F G H I J K L M N O P Q R S T U V W X Y Z