Song name
# A B C D E F G H I J K L M N O P Q R S T U V W X Y Z

Kram - The Best Thing tab

Kram - The Best Thing ( Solo )

E--------------------------------------|
B-----------10~------------------------|
G-----10-12----12----10-10/12-10~------|
D-(12)-----------12~-------------------|
A--------------------------------------|
E--------------------------------------|

E--------------------------------------------------------|
B--------------------------------------------------------|
G----10-10-10-10----10-10--10-10----10-10-10-10-10-12-10-|
D--12-------------12--------------12---------------------|
A--------------------------------------------------------|
E--------------------------------------------------------| 

E--------------------------------------|
B-----------10~------------------------|
G-----10-12----12----10-10/12-10~------|
D-(12)-----------12~-------------------|
A--------------------------------------|
E--------------------------------------| 

E-----------------------------------------------------|
B-----------------------------------------------------|
G--10-12b(14)--10-12b(14)--10-12b(14)--10-12b(14)-----|
D-----------------------------------------------------|
A-----------------------------------------------------|
E-----------------------------------------------------|

E-------------------------|
B-10-------------10-------| 
G---12-10p12---12--10-12--|
D-------------------------|
A-------------------------|
E-------------------------|
Tap to rate this tab
# A B C D E F G H I J K L M N O P Q R S T U V W X Y Z