Song name
# A B C D E F G H I J K L M N O P Q R S T U V W X Y Z

Kravitz Lenny - Mr Cab Driver tab

This is my first tab so i hope its a good one! The guitar is really light in this song.

Standard Tuning

Main Riff
---------------------------------------|
--2------------------------------------|
--2---x3-------------------------------|
--2--------0-------0-------------------|  x4
--0--------x-------x-------------------|
-----------3---0---3--0----------------|


Verse
---------------------------------------------------------------|
--2-2-----2-2-2-----2---3--3-----3--3--3-----------------------|
--2-2-----2-2-2-----2---2--2--4--2--2--2--4--------------------|
--2-2--4--2-2-2--4--2---0--0--0--0--0--0--0--------------------|
--0-0--0--0-0-0--0--0------------------------------------------|
---------------------------------------------------------------|


Main Riff

-----------------------------------------------------------|
---3-3-----3-3-3-----3-3-3-----3-3-3-----------------------|
---2-2--4--2-2-2--4--2-2-2--4--2-2-2--4--------------------|
---0-0--0--0-0-0--0--0-0-0--0--0-0-0--0--------------------|
-----------------------------------------------------------|
-----------------------------------------------------------|


Main Riff

-----------------------------------------------------------|
-----------------------3-3-----3-3-3-----------------------|
-----------------------2-2--4--2-2-2--4--------------------|
--2-2-----2-2-2-----2--0-0--0--0-0-0--0--------------------|
--2-2--4--2-2-2--4--2--------------------------------------|
--0-0--0--0-0-0--0--0--------------------------------------|

Main Riff

Repeat Verse

Prechorus
-------------------------------------------------------------------|
--3-3-----3-3-3-----3-3-3-----3-3-3--------------------------------|
--2-2--4--2-2-2--4--2-2-2--4--2-2-2--4-----------------------------|
--0-0--0--0-0-0--0--0-0-0--0--0-0-0--0-----------------------------|
-------------------------------------------------------------------|
-------------------------------------------------------------------|

-------------------------------------------------------------------|
--2-2-----2-2-2-----2-2-2-----2-2-2--------------------------------|
--2-2-----2-2-2-----2-2-2-----2-2-2--------------------------------|
--2-2--4--2-2-2--4--2-2-2--4--2-2-2--4-----------------------------|
--0-0--0--0-0-0--0--0-0-0--0--0-0-0--0-----------------------------|
-------------------------------------------------------------------|

Repeat Once

---------------------------------------------|
----------8----------------------------------|
-4--------7----------------------------------|
-4--x8----6---x8-----------------------------|
-2--------7--------5h7-5h7-5h7-5h7-5h7-------|
---------------------------------------------|

Chorus
---------------------------------------------|
-2-------------------------------------------|
-2-------------------------------------------|
-2--x11----0-----0---------------------------|
-0---------x-----x---------------------------|  x4
-----------3--0--3--0------------------------|

Verse

Prechorus

Chorus


Thats it. I couldn't figure out the solo. Sry!
Tap to rate this tab
# A B C D E F G H I J K L M N O P Q R S T U V W X Y Z