Song name
# A B C D E F G H I J K L M N O P Q R S T U V W X Y Z

Kreator - Awakening tab

Help us improve GuitareTab! Take a short survey!
Band:  CROWBAR
Album: Sonic Excess in its Purest Form
Song:  Awakening

Transcribed by:	general maxx

Tuning:	2.5 steps down (B)

Keys:
 ___ - palm mute
  p  - pull off
 / \ - slide
  b  - bend


INTRO:
|-----------------------------|
|-----------------------------|
|-----------------------------|
|-----------------------------|
|-2--2--------1-2-4-----------|
|-0--0--0-3-0-------0-3-0-2-0-| 4x
  ____

(Gtr 1)
|-----------------------------|
|-----------------------------|
|-----------------------------|
|-----------------------------|
|-2--2--------1-2-4-----------|
|-0--0--0-3-0-------0-3-0-2-0-|

(Gtr 2)
|-----------------------------|
|-----------------------------|
|-----------------------------|
|-------------1-2-4-----------|
|-2--2--2-5-2-------2-5-2-4-2-|
|-0--0------------------------| 4x


VERSE:
|---------|      |-----------------------|
|---------|      |-----------------------|
|---------|      |-----------------------|
|---------|      |-3-3-3-3-----5---------|
|---------|      |-3-3-3-3-2-2-3-----/8~-|
|-0-0-0-0-| 14x  |-1-1-1-1-0-0---0-0-----|
  _______          ___________   ___

|---------------|
|---------------|
|---------------|
|-----5---------|
|-----3-----/8~-|
|-0-0---0-0-----| 3x
  ___   ___


VERSE


CHORUS:
|-----------------------------------------|
|-----------------------------------------|
|-----------------------------------------|
|-9\-2-5-7-8-9-8-7-5/7-3-6-8-9---------3\-|
|-7\-2-5-7-8-9-8-7-3/5-3-6-8-9-5-4-5-4-3\-|
|-0--0-3-5-6-7-6-5-3/5-1-4-6-7-3-2-3-2----| 2x
                               _______


INTRO


VERSE


CHORUS - 4x


BRIDGE:
|--------------------------------|
|--------------------------------|
|--------------------------------|
|-3-5-6-3-5-/10-9---7-7-7-7------|
|-3-5-4-1-3-/-8-7---5-5-7-7------|
|-1-3-4-1-3-------------5-5-6~---| 4x

(Gtr 1)
|--------------------------------|
|--------------------------------|
|--------------------------------|
|-3-5-6-3-5-/10-9---7-7-7-7------|
|-3-5-4-1-3-/-8-7---5-5-7-7------|
|-1-3-4-1-3-------------5-5-6~---| 4x

(Gtr 2 - w/wah)
|--------------------------------|
|--------------------------------|
|-----------5b-4~----------------|
|-3-5-6-3-5---------2-2----------|
|-----------------------3-3-1~---|
|--------------------------------| 4x


OUTRO:
|-----------------|
|-----------------|
|-----------------|
|-----------------|
|-----------------|
|-6b---4br--3~-2~-| 4x
Related for Awakening tab