Song name
# A B C D E F G H I J K L M N O P Q R S T U V W X Y Z

Kreator - Nonconformist tab

KREATOR
'Nonconformist'

from the album 'Cause For Conflict'


transcribed by
  QuImIcO TrAsH (dan_metal_grunge@hotmail.com)


intro
|--------------------------------|
|--------------------------------|
|--------------------------------|
|--7-7-6-7-------7-7-6-7---------|
|--5-5-4-5-------5-5-4-5---------|
|--------------------------------|

|----------------------------------|
|----------------------------------|
|----------------------------------|
|--7-7-6-7--7-6-7--7-6-7-6-5-------|  x4
|--5-5-4-5--5-4-5--5-4-5-4-3--5-5--|
|-----------------------------3-3--|


verse
------ --------------  ---------|
------ --------------  ---------|
------ --------------  ---------|
------ --------------  ---------|
-5-5-- --6-5-6--5-5--  --6-5-6--|
-3-3-- --4-3-4--3-3--  --4-3-4--|
What is yours...

|----------------------------------|
|----------------------------------|
|----------------------------------|
|--7-7-6-7--7-6-7--7-6-7-6-5-------|  x2
|--5-5-4-5--5-4-5--5-4-5-4-3--5-5--|
|-----------------------------3-3--|


------ --------------  ---------|
------ --------------  ---------|
------ --------------  ---------|
------ --------------  ---------|
-5-5-- --6-5-6--5-5--  --6-5-6--|
-3-3-- --4-3-4--3-3--  --4-3-4--|
Staring into empty eyes...

|----------------------------------|
|----------------------------------|
|----------------------------------|
|--7-7-6-7--7-6-7--7-6-7-6-5-------|  x2
|--5-5-4-5--5-4-5--5-4-5-4-3--5-5--|
|-----------------------------3-3--|


pre-chorus
|--------------------------------------|
|--------------------------------------|
|--------------------------------------|
|--55555555-66666666-77777777-66666666-|
|--55555555-66666666-77777777-66666666-|
|--33333333-44444444-55555555-44444444-|
I don't believe...


chorus
|----------------------------------|
|----------------------------------|
|----------------------------------|
|--7-7-6-7--7-6-7--7-6-7-6-5-------|  x4
|--5-5-4-5--5-4-5--5-4-5-4-3--5-5--|
|-----------------------------3-3--|
Nonconformist


verse 2
-----------------------------------------------|
-----------------------------------------------|
-----------------------------------------------|
-----------------------------------------------|
-5-5-------------6-5-6--5-5-------------6-5-6--|
-3-3333333333333-4-3-4--3-3333333333333-4-3-4--|
Count the days...

|----------------------------------|
|----------------------------------|
|----------------------------------|
|--7-7-6-7--7-6-7--7-6-7-6-5-------|  x2
|--5-5-4-5--5-4-5--5-4-5-4-3--5-5--|
|-----------------------------3-3--|


-----------------------------------------------|
-----------------------------------------------|
-----------------------------------------------|
-----------------------------------------------|
-5-5-------------6-5-6--5-5-------------6-5-6--|
-3-3333333333333-4-3-4--3-3333333333333-4-3-4--|
Conform into society...

|----------------------------------|
|----------------------------------|
|----------------------------------|
|--7-7-6-7--7-6-7--7-6-7-6-5-------|  x2
|--5-5-4-5--5-4-5--5-4-5-4-3--5-5--|
|-----------------------------3-3--|


pre-chorus
|--------------------------------------|
|--------------------------------------|
|--------------------------------------|
|--55555555-66666666-77777777-66666666-|
|--55555555-66666666-77777777-66666666-|
|--33333333-44444444-55555555-44444444-|
I don't believe...


chorus
|----------------------------------|
|----------------------------------|
|----------------------------------|
|--7-7-6-7--7-6-7--7-6-7-6-5-------|  x4
|--5-5-4-5--5-4-5--5-4-5-4-3--5-5--|
|-----------------------------3-3--|
Nonconformist


interlude
|--------------------|
|--------------------|
|--------------------|
|--5-55-5-5-6-66-6-6-| x2
|--5-55-5-5-6-66-6-6-|
|--3-33-3-3-4-44-4-4-|

|--------------------------------------|
|--------------------------------------|
|--------------------------------------|
|--------------------------------------| x2
|--14--14-14--14--14--15--15-15--15--15|
|--12--12-12--12--12--13--13-13--13--13|

|--------------------|
|--------------------|
|--7-77-777-5-55-555-|
|--7-77-777-5-55-555-| x4
|--5-55-555-3-33-333-|
|--------------------|
They'll burn your dreams...


|--------------------|
|--------------------|
|--------------------|
|--5-55-5-5-6-66-6-6-| x2
|--5-55-5-5-6-66-6-6-|
|--3-33-3-3-4-44-4-4-|


|--------------------|
|--------------------|
|--7-77-777-5-55-555-|
|--7-77-777-5-55-555-| x4
|--5-55-555-3-33-333-|
|--------------------|
They'll take away...


|----------| |----------------------------------|
|----------| |----------------------------------|
|----------| |----------------------------------|
|--7-7-6-7-| |--7-7-6-7--7-6-7--7-6-7-6-5-------|  x4
|--5-5-4-5-| |--5-5-4-5--5-4-5--5-4-5-4-3--5-5--|
|----------| |-----------------------------3-3--|
              Nonconformist...


|--------------------------------------|
|--------------------------------------|
|--7-77-7-7-5-55-5-5-3-33-3-3-5-55-5-5-|
|--7-77-7-7-5-55-5-5-3-33-3-3-5-55-5-5-| x2
|--5-55-5-5-3-33-3-3-1-11-1-1-3-33-3-3-|
|--------------------------------------|


end
|-------------------|
|-------------------|
|-------------------|
|--7-7-6-7~~~~------|
|--5-5-4-5~~~~------|
|-------------------|


 ¡¡¡MUERTE AL REGGAETON!!!.... DEAD REGGAETON DEAD!!!!
Tap to rate this tab
# A B C D E F G H I J K L M N O P Q R S T U V W X Y Z